Everlast - Today Chords & Tabs

 

Today Chords & Tabs

Everlast Chords & Tabs

Version: 1 Type: Tab 0 ratings
1 star 2 stars 3 stars 4 stars 5 stars
comments

Today Tab

   
everlast, today(watch me shine) bronx style
matt, jebronie31@aol.com
regular tuning, e a d g b e
/-slide up,h-hitdown
 e------------------------------------
 a------------------------------------
 d--------------------xxx-5-55--------
 g----0-2-2-2-xxx-5-55xxx-5-55xxx-7-77
 b-0h2--2-2-2-xxx-5-55xxx-3-33xxx-7-77
 E----------------3-33--------xxx-5-55
[ Tab from: http://www.guitartabs.cc/tabs/e/everlast/today_tab.html ]
 e------------------------------------
 a------------------------------------
 d--------------xxx-5-55--------------   (repeat 10x)
 g-2-2-2xxx-5-55xxx-5-55xxx-7-77------
 b-2-2-2xxx-5-55xxx-3-33xxx-7-77------
 E----------3-33--------xxx-5-55------

 e------------------------------------
 a------------------------------------
 d------------------------------------
 g-2-2/5x-2-2/5x-2-2/5x-7-------------
 b-2-2/5x-2-2/5x-2-2/5x-7-------------
 E-0-0/3x-0-0/3x-0-0/3x-5-------------

thats how the song goes, listen for tempo from song, if you find anything wrong e-mail me

Comments