Everlast - Lonely Road Chords & Tabs

 

Lonely Road Chords & Tabs

Everlast Chords & Tabs

Version: 1 Type: Tab 2 ratings
1 star 2 stars 3 stars 4 stars 5 stars
comments

Lonely Road Tab

   
Everlast
Lonely Road

This is a great song by everlast,i cant find much tab
for his music so this for any one who has been looking for more.
p.s. dont be a cheap ass go buy the White Trash Beautiful c.d.
It is worth every penny it is "The Shit"


Guitar 1 plays the chords shown below

Chords:
D  C#  B  A
5  2   2  0
5  2   2  2
7  2   4  2 
7  2   4  2
5  4   2  0
x  x   x  x


Guitar 2 intro fill
e  ---2-----0---2~~~-----2-------0---------------------------------------------------------
b  ------3-------------------3-------------------------------------------------------------
g  ---------------------------------4~~~~--------------------------------------------------
d  ----------------------------------------------------------------------------------------
a  ----------------------------------------------------------------------------------------
e  ----------------------------------------------------------------------------------------

Guitar 2 2nd fill
e  ----------------------------------------------------------------------------------------
b  --------10---------10---------10---------------10---------------------------------------
g  -----11----11---11----11---11----11---11----11------------------------------------------
d  ---9----------9----------9----------9----9----------------------------------------------
a  ----------------------------------------------------------------------------------------
e  ----------------------------------------------------------------------------------------
[ Tab from: http://www.guitartabs.cc/tabs/e/everlast/lonely_road_tab.html ]
Verse-1
  Too much time thinkin bout all of my mistakes...........
e  ----------------------------------------------------------------------------------------
b  ----------------------------------------------------------------------------------------
g  ----------------------------------------------------------------------------------------
d  ---4---4---4---4---4---4----4-----------------------------------------------------------
a  -5---5---4---4--------------------4--5--------------------------------------------------
e  -----------------7---7----5---5^7------------------------------------------------------- 

Chords for chorus same as intro chords
D      C#     B       A       D          C#              B                 A               
I walk along a lonely road....My back is strong girl.... Ill carry the load
D      C#            B                     A   D      C#            B      A
Im only grindin time I pay the debt thats owed I walk along a lonely road

Solo
e  -12--10----10----------------------------------------------------------------------------
b  --------12----10--12~~~~~------10--12--7^------------------------------------------------
g  ------------------------------------------9--7~~~~~---7--9--9^----7-----7~~~~~~~~~~------
d  ----------------------------------------------------9---------------9--------------------
a  -----------------------------------------------------------------------------------------
e  ----------------------------------------------------------------------------------------- 

Thats it the best ones are always simple.
p.s. Set that damn electric down and play 
some acoustic.Remember if it sounds good 
acoustic it will sound damn good electric.
 
Posted by: C.Farr
cbcb.1@netzero.com                                   
Comments