Everlast - Hey Now Chords & Tabs

 

Hey Now Chords & Tabs

Everlast Chords & Tabs

Version: 1 Type: Tab 0 ratings
1 star 2 stars 3 stars 4 stars 5 stars
comments

Hey Now Tab

For all you Everlast fans out there 
   here's that new song "hey now".

   Standard tuning
   capo ?????fret

   Intro(played over and over
   -|-0--0--0-0-0-0-0-0-0---0--0-0-0-0-0--|-
   -|-1--1--1-1-0p1-1-1-1---1--3-3-3-1-0--|-
   -|*2--2--2-2-2-2-2-2-2---0--0-0-0-0-0--|-
   -|*2--2--2-2-2-2-2-2-2---2--2-2-2-2-2--|-
   -|-0--0--0-0-0-0-0-0-0---3--3-3-3-3-3--|-
   -|-------------------------------------|-
[ Tab from: http://www.guitartabs.cc/tabs/e/everlast/hey_now_tab.html ]
   -|-3--3-3-3-3-3-3-3-3--1-1-1-1-1-1-1--0-0-0-0-|-
   -|-3--3-3-3-3-3-3-3-3--1-1-1-1-1-1-1--0-0-0-0-|-
   -|-0--0-0-0-0-0-0-0-0--2-2-2-2-2-2-2--1-1-1-1*|-
   -|-0--0-0-0-0-0-0-0-0--3-3-3-3-3-3-3--2-2-2-2*|-
   -|-2--2-2-2-2-2-2-2-2--3-3-3-3-3-3-3--2-2-2-2-|-
   -|-3--3-3-3-3-3-3-3-3--1-1-1-1-1-1-1--0-0-0-0-|-

   The stumming pattern is not right on the money so listen to the song to
   get it perfect.

   If you have any special requests for the older tabs that freshtabs don't
   do send me a line or a request to
   g-maniac@juno.com 
Comments