Everlast - Ends Chords & Tabs

 

Ends Chords & Tabs

Everlast Chords & Tabs

Version: 4 Type: Tab 0 ratings
1 star 2 stars 3 stars 4 stars 5 stars
comments

Ends Tab

   
===============================================================================
Song: Ends
Artist: Everlast
Tuning: e,B,G,D,A,e  from High to Low
Tabbed by: The Same Man_99
Date: 26.02.2002

===============================================================================

Intro / Chorus

      e      D      C                
|-----0------2------0------|
|-----0------3------1------|
|-----1------2------0------|
|-----2------0------2------|
|-----2------X------3------|
|-----0------X------0------|

Mini Solo befor Verse

|------------------------------|
|------------------------------|
|------------------------------|
|------------------5-----0-----|
|------0-----2-----------------|
|------------------------------|

Verse

       e      A                
|------0------0------|
|------0------2------|
|------1------2------|
|------2------2------|
|------2------2------|
|------0------0------|

Solo
[ Tab from: http://www.guitartabs.cc/tabs/e/everlast/ends_tab_ver_4.html ]
|---------------------------------------------------------------------|
|---------------------------------------------------------------------|
|----------------------0---------------------------0------------------|
|---------5--0----2-----------------5--0----2--------------5---0---7--|
|--0--2---------------------0--2---------------------0--2-------------|
|---------------------------------------------------------------------|

|------------------------------|
|------------------------------|
|--0------------------------0--|
|--------------5---0---2-------|
|------0--2--------------------|
|------------------------------|

|--------------------------------------------------------------------|
|--------------------------------------------------------------------|
|--------------------------------------------------------------------|
|-----------5--0---9---7----------5--0---9----7-----------5--0----2--|
|---0---2------------------0---2-------------------0---2-------------|
|--------------------------------------------------------------------|

|--------------------------------|
|--------------------------------|
|--0--------------------------0--|
|--------------5---0-----2-------|
|------0--2----------------------|
|--------------------------------|

===============================================================================
Comments