Everlast - Black Jesus Chords & Tabs

 

Black Jesus Chords & Tabs

Everlast Chords & Tabs

Version: 1 Type: Tab 0 ratings
1 star 2 stars 3 stars 4 stars 5 stars
comments

Black Jesus Tab

   
Intro
G               Bb             A            F
---------3--------------1-----------0------------------1----------
------------3-------------3-----------2-------------------1-------
--------------0-------3-----3-----2------2-------------------2----
-----0--------------3-----------2-------------------3-------------
---2-------------1------------0------------------3----------------
-3--------------------------------------------1-------------------

do intro twice then:

G Bb A F throughout the verses and chorus

  G   Bb  A   F
 -3- -1- -0- -1-
 -3- -3- -2- -1-
 -0- -3- -2- -2-
 -0- -3- -2- -3-
 -2- -1- -0- -3-
 -3- --- --- -1-

That's the song. It might not be prefect but it's close.
[ Tab from: http://www.guitartabs.cc/tabs/e/everlast/black_jesus_tab.html ]
Comments