Everlast - Angel Chords & Tabs

 

Angel Chords & Tabs

Everlast Chords & Tabs

Version: 1 Type: Tab 0 ratings
1 star 2 stars 3 stars 4 stars 5 stars
comments

Angel Tab

This is my first tab, but im pretty sure it's right.

Standard Tuning

Intro/Verse
[ Tab from: http://www.guitartabs.cc/tabs/e/everlast/angel_tab.html ]
E---------------------------------------------------------|
B---------h3~------------------------h3~------------------|
G------2--------------------------2-----------------------|
D---0----------3----2---------0-----------3---3/5---------|
A------------------------3---------------------------3----|
E---------------------------------------------------------|


Chorus

E---0------0-------3-----|
B---3------3-------3-----|
G---2------0-------0-----|
D---0------2-------0-----|
A---0------3-------2-----|
E---0------0-------3-----|

Holla at me for any corrections or comments.
PEACE

Tyler Long
Comments