Everclear - Wonderful Chords & Tabs

 

Wonderful Chords & Tabs

Everclear Chords & Tabs

Version: 2 Type: Bass Tab 0 ratings
1 star 2 stars 3 stars 4 stars 5 stars
comments

Wonderful Bass Tab

Wonderful
Everclear
Album: Songs From an American Movie.  Part 1
Tabbed by: wsu182@hotmail.com



Intro (follows piano)
G-----------------
D---5-------------
A------5--3--5---
E------------------

Verse
G-------------------------------
D--------2--------2-----2----2-
A------------5------3------5---
E---3---------------------------

Chorus "Promises mean everything...I hate everything"
G------------------------------------------
D------------------------------------------2--
A---33333333-55555555--------------
E---------------------------------3333-----
[ Tab from: http://www.guitartabs.cc/tabs/e/everclear/wonderful_btab_ver_2.html ]
"Everything is wonderful now...Na na na na na"
G--------------------------------------------
D--------222--------222--------222-------
A--------------555---------333------555--
E---333-------------------------------------

"I just want my life to be the same...just like it used to be"
G-------------
D---5--4--2-
A------------
E------------

"No...No"  & Outro
G--------------
D--------------
A--------------
E---333-000--

That's all of it, but I didn't really take the time to get the exact number 
of times each note is played, it's pretty simple to do that.  Enjoy.
Comments