Everclear - Why I Dont Believe In God Chords & Tabs

 

Why I Dont Believe In God Chords & Tabs

Everclear Chords & Tabs

Version: 1 Type: Tab 0 ratings
1 star 2 stars 3 stars 4 stars 5 stars
comments

Why I Dont Believe In God Tab

   
Song- “Why I Don’t Believe in God”
Album- So Much for the Afterglow
Tabbed by evergleam107

There are three parts, one acoustic guitar, one banjo, and one slide guitar.  The slide guitar is tuned weird and isn’t a big part to the song so I’m not going to put that in. The banjo practically mimic’s the acoustic guitar so I’ll put that part in.

Intro:
Harmonics- - - - - - - - - - - - - - - - - - - - - - - - - - - - - - - - - - - |
E-------------------------------------------------------------------------------
B--------------7-------------------------7---------------------------7----------
G---12------------7-----------12------------7------------12------------7------12
D-------12-----------7------------12------------7------------12-----------------
A-------------------------------------------------------------------------------
E-------------------------------------------------------------------------------

Rhyme Fig. 1-This is played by the acoustic and banjo for awhile but during the verse only the banjo plays this part.

E-----------------3-----------------------------------------------------------
B-------------------------3-------------------3-------------------------0-----
G---------------------0--------------------------2----0----------0------------
D-----------0-----------------------------0---------------1h2-----------------
A-----------2-----------------------------------------------------------------
E---2h3-----------------------2h3---------------------------------------------

Verse- acoustic with rhyme fig. 1
      C                                     D                              C                           B7
E-------------------------------------------------------------------------------
B----------1--------------------3---------(0)-----------1----------------3----0-
G--------------------------2----------2----------------------0---------2--------
D-------2--------0-----0-----------------------------2-----0--------1-----------
A---3--------------------------------------------3---------------2--------------
E-------------------------------------------------------------------------------

Above is what Art does the first couple measures and I put the chords he’s picking for a reason.  He plays this piece a lot and each time it’s a little different and it would be too long for me to put each variation of it down but those are the chords he picks each time.

Bridge- This is the part where he says feel like letting it all go.
This part has the acoustic picking palm muted power chords and the slide guitar doing a bunch of stuff on the twelve fret.  The power chords are Bb5, D5, G5, and F5.
[ Tab from: http://www.guitartabs.cc/tabs/e/everclear/why_i_dont_believe_in_god_tab.html ]
Slide guitar solo- I’ll put it down just for those who want it, the guitar is in open D tuning.
E-------------------------------12--------------------------12-----------------
B---------12-------12------12s--------10s12------12------12------------10s12---
G-------------12-----------12s--------10s12----------12--------12------10s12---
D----------------------------------------------------------------------------12s
A---10s12-----------------------------------------------------------------------
E-------------------------------------------------------------------------------
-
E---12---------------------------------------------12------------------------
B--------12------12------------------10s12------------12-------12s-----------
G----------------------12-------------10s12-----------------------xs---------
D----------------------------12s-----------------------------------12s-------
A----------------------------------------------------------------------------
E----------------------------------------------------------------------------

Verse 3- starts with I ran away looking for you.

E---0----------2----------0------------0---------------------------------------2
B---1----------3----------0------------0-----------------1-------1-------------3
G---0----------2----------2------------0-------------------------0-------------2
D---2----------0----------1------------2------------0------------2-------------0
A---3---------------------2------------2-------0h2---------------3--------------
E--------------------------------------0----------------------------------------
							          I ran through the projects…
E----------------------0---------------------------0---0---0----------2---2---2
B------------0------0-------------0--------0-------1---1---1----------3---3---3
G---------------------------------0--------0-------0---0---0----------2---2---2
D-------1-------------------------0--------0-------2----2--2----------0---0---0
A---2------------------------0h2-------------------3---3---3-------------------
E-------------------------0----------------------------------------------------

E---2---2---2------0---0---0------0---0---0-------It goes onlike that with	
B---0---0---0------0---0---0------1---1---1--------	those chords until where
G---2---2---2------0---0---0------0---0---0--------	he says I could go live 
D---1---1---1-------2---2---2-----2---2---2------   with them for awhile.
A---2---2---2-------2---2---2-----3---3----3------
E-------------------0---0---0-----------------------
	Said that maybe I could live with them for a while…
E---0--------2------------------------------------------3-----------------------
B---1--------3---------------3------------------1-----------1--------1---------1
G---0--------2-------2----2----------0------0------------------------------0----
D---2--------0--------------------2------------------2-----------2--------------
A---3-----------------------------------3------------------------------3--------
E-------------------------------------------------------------------------------

After that is the silent I know the truth part.   After that until the slower part he strikes the chords B7, Em, C, and D and then randomly picks them.  The slower part is like the intro and then the outro is another slide guitar solo like the one above. This is a deep song so play it with emotion.






Comments