Everclear - When It All Goes Wrong Again Chords & Tabs

 

When It All Goes Wrong Again Chords & Tabs

Everclear Chords & Tabs

Version: 1 Type: Bass Tab 0 ratings
1 star 2 stars 3 stars 4 stars 5 stars
comments

When It All Goes Wrong Again Bass Tab

When It All Goes Wrong Again
Song From An American Movie Volume 2: Good Time For a bad attitude
Bass by Craig Montoya Music by Everclear

tuning: 1/2 step down

Verse:
Gb|--------------------------------------------------------|
Db|--------------------------------------------------------|
Ab|--------------------------------------------------------|
Eb|-1--1-/-3---3---3---1---1-/-3---3---3---1---7---7---7--7|

Gb --------------------------------------------------------|
Db --------------------------------------------------------|
Ab --------------------------------------------------------|
Eb 7---8---8---8--8----------------------------------------|

Change Part, Near The Middle:
Gb|--------------------------------------------------------|
Db|--------------------------------------------------------|
Ab|---(-----Guitar Plays-----)-----------------------------|
Eb|---(-The-First-Few--Times-)--3---3---3---3---3---3---3--|
[ Tab from: http://www.guitartabs.cc/tabs/e/everclear/when_it_all_goes_wrong_again_btab.html ]
Gb --------------------------------------------------------|
Db --------------------------------------------------------|
Ab --------------------------------------------------------|
Eb -3------------------------------------------------------|

Then This Interlude Type Part:
Gb|--------------------------------------------------------|
Db|--------------------------------------------------------|
Ab|---2---2---2---2----3---3---3---3----2---2---2---2----3-|
Eb|--------------------------------------------------------|

Gb --------------------------------------------------------|
Db --------------------------------------------------------|
Ab -3---3---3----------------------------------------------|
Eb --------------------------------------------------------|

Outro:
Gb|--------------------------------------------------------|
Db|--------------------------------------------------------|
Ab|--------------------------------------------------------|
Eb|----1-/-3---3---3---1---1-/-3---3---3---1---1-/-3---3---3

Gb --------------------------------------------------------|
Db --------------------------------------------------------|
Ab --------------------------------------------------------|
Eb 3---1---------------------------------------------------|
Comments