Everclear - Thrift Store Chair Chords & Tabs

 

Thrift Store Chair Chords & Tabs

Everclear Chords & Tabs

Version: 1 Type: Tab 0 ratings
1 star 2 stars 3 stars 4 stars 5 stars
comments

Thrift Store Chair Tab

Author/Artist: Everclear
Title: Thrift store chair                                               
transcribed by: Tony Cossentino
Email: Tony@cossentino.com


It sounds pretty good to me. This song basically has two different parts repeated throughout it.


Intro Riff

E---3----------3-----------------------------3-------------------
B----3---------3-----------------------------3-------------------
G-----0--------0----------0h2p0--------------0----------0h2-2--0-
D------0----0--0------0h2-------2p0h2--0--0--0------0h2----------
A-------2---2--2--0h2------------------2--2--2--0h2--------------
E--------3--3--3-----------------------3--3--3-------------------

Main Riff
[ Tab from: http://www.guitartabs.cc/tabs/e/everclear/thrift_store_chair_tab.html ]
E---------3-------------------------------3----------------------
B---------3-------------------------------3----------------------
G---------0------------0h2p0--------------0----------0h2-2--0----
D---0--0--0-------0h2--------2p0h2--0--0--0------0h2-------------
A---2--2--2--0h2--------------------2--2--2--0h2-----------------
E---3--3--3-------------------------3--3--3----------------------

I think we\'re headed for a big fall....

E----------------------------------------------------------------
B----------------------------------------------------------------
G----------------------------------------------------------------
D---7-------7--9--10-------------------9--7--5-------------------
A---7-------7--9--10---------10h12-12--9--7--5-------------------
E---5-------5--7--8----10h12-----------7--5--3-------------------


Thats about it.




Comments