Everclear - Sparkle Chords & Tabs

 

Sparkle Chords & Tabs

Everclear Chords & Tabs

Version: 1 Type: Tab 0 ratings
1 star 2 stars 3 stars 4 stars 5 stars
comments

Sparkle Tab

#----------------------------------PLEASE NOTE--------------------------------#
#This file is the author's own work and represents their interpretation of the#
#song. You may only use this file for private study, scholarship, or research.#
#-----------------------------------------------------------------------------#
#-- File created with Instab - http://www.pconline.com/~smcarey/instab.html --#
#-----------------------------------------------------------------------------#

Author/Artist: Everclear
Title: Sparkle
Album: World of Noise
Transcribed by: Wes Dolezal
Email: Laminate_Man@yahoo.com
Web : www.geocities.com/SunsetStrip/Diner/8868/main.htmlIf you have any questions, complaints, suggestions,
or requests, just e-mail me.


-|-5-5--5--------5-5-5-5-5-5-5-5-5-5-5-5--|-----------------------------------
-|-7-7--5--------7-7-7-7-5-5-5-5h7-7-7-7--|-----------------------------------
-|-7-7--7--------7-7-7-7-7-7-7-7-7-7-7-7--|-----------------------------------
-|----------------------------------------|-----------------------------------
-|----------------------------------------|-----------------------------------
-|----------------------------------------|-----------------------------------
G1. intro     pm'ed-------------------

-|-2-2-2-0-0-0-2-2-2-0-0----|-------------------------------------------------
-|-3-3-3-3-3-3-3-3-3-3-3----|-------------------------------------------------
-|-2-2-2-2-2-2-2-2-2-2-2----|-------------------------------------------------
-|-0-0-0-0-0-0-0-0-0-0-0----|-------------------------------------------------
-|--------------------------|-------------------------------------------------
-|--------------------------|-------------------------------------------------
when G2. comes in just keep repeating till start of the verse.
[ Tab from: http://www.guitartabs.cc/tabs/e/everclear/sparkle_tab.html ]
-|----------------|-----------------------------------------------------------
-|-7-7-7-7-7-7-7--|-----------------------------------------------------------
-|-7-7-7-7-7-7-7--|-----------------------------------------------------------
-|-7-7-7-7-7-7-7--|-----------------------------------------------------------
-|-5-5-5-5-5-5-5--|-----------------------------------------------------------
-|----------------|-----------------------------------------------------------
G1. switches to this right before the 1st verse.

-|----------------|---------------|------------|------------------------------
-|----------------|---------------|------------|------------------------------
-|-7---------7----|--4-----7------|---4--------|------------------------------
-|-7---4--5--7----|--4--7--7--5---|---4--7--5--|------------------------------
-|-5---4--5--5----|--2--7--5--5---|---2--7--5--|------------------------------
-|-----2--3-------|-----5-----3---|------5--3--|------------------------------
verse.           chourus.         end of chorus.

-|----------------|---------------------|--------------|----------------------
-|----------------|---------------------|--------------|----------------------
-|-1----4----1----|---------------------|-4-----1------|----------------------
-|-2----5----2----|---------------------|-5-----2------|----------------------
-|-2----5----2----|---------------------|-5-----2------|----------------------
-|-0----3----0----|---------------------|-3-----0------|----------------------
sparkle that I thought I saw.          given up and given in.

-|------------------|---------------------------------------------------------
-|------------------|---------------------------------------------------------
-|-8-7b8r7-8-7b8r7--|---------------------------------------------------------
-|------------------|---------------------------------------------------------
-|------------------|---------------------------------------------------------
-|------------------|---------------------------------------------------------
fill riff.

-|-2----2-----|--------------------------------------------------------|------
-|-3----2-----|--------------------------------------------------------|------
-|-2----3-----|----8-8-8-8-8-7-7-6-6-6h7p6-----8-8-8-8-8-7-7-6-6-6/7---|------
-|-0----0-----|---------------------------h7---------------------------|------
-|------------|--------------------------------------------------------|------
-|------------|--------------------------------------------------------|------
End chord       lead
Comments