Everclear - Song For An American Movie Pt Chords & Tabs

 

Song For An American Movie Pt Chords & Tabs

Everclear Chords & Tabs

Version: 1 Type: Tab 0 ratings
1 star 2 stars 3 stars 4 stars 5 stars
comments

Song For An American Movie Pt Tab

   
EVERCLEAR-SONG FOR AN AMERICAN MOVIE PART 2


standard tuning

heres the riff played throughout the whole thing with a load of pedals
to make it sound a bit like a synth


E------15---15
B---------12--
G12-----------
D-------------
A-------------
E-------------


then it goeslike this for the verses

E------------
B------------
G------------
D----55-99-55
A-55-33-77-33
E-33---------


then then the bridge played for the "i wanna get lost in my life sometimes"
bit
[ Tab from: http://www.guitartabs.cc/tabs/e/everclear/song_for_an_american_movie_pt_tab.html ]
E--------------
B--------------
G--------------
D-55-xx-99--77-
A-33-xx-77--55-
E--------------


then the "the only words that ever made sense to me" bit

E-------------------
B-------------------
G-------------------
D-77xx55xx---------5
A-55xx33xx55----55-3
E---------33----33--

thats it apart from the solo,which if anyone can work out please can they post
im dissappointed with the amount of new everclear stuff on here.hope you enjoy the tab
Alex McCall
masterofcats@hotmail.com

Comments