Everclear - Sick And Tired Chords & Tabs

 

Sick And Tired Chords & Tabs

Everclear Chords & Tabs

Version: 1 Type: Bass Tab 0 ratings
1 star 2 stars 3 stars 4 stars 5 stars
comments

Sick And Tired Bass Tab

Bass tab for "Sick & Tired" by Everclear from 
their first album: "World of Noise"
(my favourite) tabbed by Chris Carter
(thesunisoftenout@hotmail.com)

I'm fairly sure he puts some distortion on this

intro/verse:
G-------------------------------------
D-----0-2-0-----------0-2-0-----------
A---2-------2-0-2---2-------2-1-0----- repeat
E-0---------------3------------------- 

chorus1:
G-------------------------------------
D-------------------------------------
A-22222222-3333------22222222-3333----
E---------------3333--------------1111

verse

chorus2:
G-------------------------------------
D-------------------------------------
A-22222222-3333------22222222-3333---- repeat x2
E---------------3333--------------3333
[ Tab from: http://www.guitartabs.cc/tabs/e/everclear/sick_and_tired_btab.html ]
G-------------------------------------
D-------------------------------------
A-22222222-333------333---------------
E---------------333------333-2222-1111

verse

chorus3:
G-------------------------------------
D-------------------------------------
A-22222222-3333------22222222-3333---- repeat x2
E---------------3333--------------3333

G-------------------------------------
D-------------------------------------
A-22222222-333------333---------------
E---------------333------333-2222-1111

G-------------------------------------
D-----0-2------------0-2-0------------
A---2------2-1-0---2-------2-1-0------
E-0--------------0--------------------

solo bit:
just play the verse and then play chorus3 again. 
Then play the verse while gradualy slowing down at 
finish on open string E. So there!


Comments