Everclear - Short Blonde Hair Chords & Tabs

 

Short Blonde Hair Chords & Tabs

Everclear Chords & Tabs

Version: 1 Type: Tab 0 ratings
1 star 2 stars 3 stars 4 stars 5 stars
comments

Short Blonde Hair Tab

   
Short Blonde Hair
Words By Art P. Alexakis 
Music By Everclear
Songs From An American Movie Volume 2: Good Time For A Bad Attitude

Note:  All strings are droped 1/2 a step.
       LOW TO HIGH! (Eb Ab Db Gb Bb Eb)

All Chords are written with respect to that tuning 
		(ie A becomes G#)

    Dm
eb|-6~--------------------------------------------|
Bb|-7~--------------------------------------------|
Gb|-8~--------------------------------------------|
Db|-8~--------------------------------------------|
Ab|-6~--------------------------------------------|
Eb|-----------------------------------------------|
         "One, Two, Three... "

    Bb         Dm      Bb  Gm
eb|---------7--6~------------| x6 NOTE: A second guitar plays the 
Bb|-----7------7~------------|    chords very loosely over the top
Gb|---8---8----8~------8-8-4-|    i.e fingers only lightly pushing down
Db|-9----------8~------9-9-6-|    on the frets   
Ab|------------6~------9-9-6-|
Eb|--------------------7-7-4-|
(no lyrics first two times)
Hey, I think this is getting to meÖ 
First class living in a goldfish bowl. 
Just when I think I have driven my life where I wanted it to be, 
it takes me to a place that I donít not want to go. 

   Gm F           Gm  F   Eb          
eb|-----------------------------------| 
Bb|-----------------------------------| 
Gb|-4-3-3---------4-4-3-3-1-1---------|
Db|-6-4-4---------6-6-4-4-2-2---------|
Ab|-6-4-4---------6-6-4-4-2-2---------|
Eb|-4-2-2---------4-4-2-2-0-0---------|
  |                                   |
eb|-------------2-------------------0-|
Bb|---------2-------------------0-----|
Gb|-------3---3---------------1---1---|
Db|-----4-------------------2---------|
Ab|-----------------------------------|
Eb|-----------------------------------|
All I ever wanted to do was to learn how to break this world in two, 

    Gm  F   Bb          Gm  F   Bb
eb|-----------------------------------------|
Bb|-----------------------------------------|
Gb|-4-4-3-3-8-8---------4-4-3-3-8-8---------|
Db|-6-6-4-4-9-9---------6-6-4-4-9-9---------|
Ab|-6-6-4-4-9-9---------6-6-4-4-9-9---------|
Eb|-4-4-2-2-7-7---------4-4-2-2-7-7---------|
  |                                         |
eb|-------------------7-------------------7-|
Bb|---------------7-------------------7-----|
Gb|-------------8---8---------------8---8---|
Db|-----------9-------------------9---------|
Ab|-----------------------------------------|
Eb|-----------------------------------------|
teach it all the tricks I wanted it to learn, 
teach it how to do what I want it to do. 

    Bb  Gm  F           Gm  F   Eb          
eb|-----------------------------------------| 
Bb|-----------------------------------------| 
Gb|-8-8-4-4-3-3---------4-4-3-3-1-1---------|
Db|-9-9-6-6-4-4---------6-6-4-4-2-2---------|
Ab|-9-9-6-6-4-4---------6-6-4-4-2-2---------|
Eb|-7-7-4-4-2-2---------4-4-2-2-0-0---------|
  |                                         |
eb|-------------------2-------------------0-|
Bb|---------------2-------------------0-----|
Gb|-------------3---3---------------1---1---|
Db|-----------4-------------------2---------|
Ab|-----------------------------------------|
Eb|-----------------------------------------|
No one really understands just how simple and plan and predictable I am. 

    Gm  F   Bb          Gm  F   Bb
eb|-----------------------------------------|
Bb|-----------------------------------------|
Gb|-4-4-3-3-8-8---------4-4-3-3-8-8---------|
Db|-6-6-4-4-9-9---------6-6-4-4-9-9---------|
Ab|-6-6-4-4-9-9---------6-6-4-4-9-9---------|
Eb|-4-4-2-2-7-7---------4-4-2-2-7-7---------|
  |                                         |
eb|-------------------7-------------------7-|
Bb|---------------7-------------------7-----|
Gb|-------------8---8---------------8---8---|
Db|-----------9-------------------9---------|
Ab|-----------------------------------------|
Eb|-----------------------------------------|
Because all I ever wanted to do was to play guitar in a rock and roll band. 
[ Tab from: http://www.guitartabs.cc/tabs/e/everclear/short_blonde_hair_tab.html ]
    Bb  Gm  F           Gm  F   Eb          
eb|-----------------------------------------| 
Bb|-----------------------------------------| 
Gb|-8-8-4-4-3-3---------4-4-3-3-1-1---------|
Db|-9-9-6-6-4-4---------6-6-4-4-2-2---------|
Ab|-9-9-6-6-4-4---------6-6-4-4-2-2---------|
Eb|-7-7-4-4-2-2---------4-4-2-2-0-0---------|
  |                                         |
eb|-------------------2-------------------0-|
Bb|---------------2-------------------0-----|
Gb|-------------3---3---------------1---1---|
Db|-----------4-------------------2---------|
Ab|-----------------------------------------|
Eb|-----------------------------------------|
Now Iím just losing my hair and Iím learning how to smile like I just donít care.

    Bb  Dm   F            Bb  Dm   F     Eb
eb|---------------|x2|-------------------------|x1
Bb|-----7----11---|--|--------7----11----9-----|
Gb|-8---8----11---|--|----8---8----11----9-----|
Db|-9---8----11---|--|----9---8----11----9-----|
Ab|-9---6----9----|--|----9---6----9-----7-----|
Eb|-7-------------|--|----7--------------------|
No, I just donít care. (I hear them under their breath.) 
No, I just donít care. (What they sayÖ when they think that I canít hear them.) 
I see them point and I see them stare.
 There goes that stupid guy with the short blonde hair. 

(Second verse is the same as the first, except with increased drum and
	bass presence and maybe the second guitar strumming at bit heavier)
Yeah, I think this is getting to meÖ 
First class living in a goldfish bowl. 
Just when I think I have driven my life where I wanted it to be, 
it takes me to a place that I donít want to go. 

(Pre chorus is also the same, again with extra drum and bass) 
All I ever wanted to do was to learn how to break this world in two. 
Teach it all the tricks I wanted it to learn, 
teach it how to do what I want it to do. 
No one really understands just how simple and plain and predictable I am. 
Because all I ever wanted real bad was to play guitar in a rock and roll band. 
Now Iím just losing my hair and learning how to smile. 

    Bb        Dm      F       Bb        Dm      F        Eb
eb|----------------------|x2|----------------------------------|x1
Bb|-----------7-------11-|--|-----------7-------11-------9-----|
Gb|-8---------8-------11-|--|-8---------8-------11-------9-----|
Db|-9---------8-------11-|--|-9---------8-------11-------9-----|
Ab|-9---------6-------9--|--|-9---------6-------9--------7-----|
Eb|-7--------------------|--|-7--------------------------------|
  |                      |  |                                  |
eb|---------7------------|x2|---------7------------------------|
Bb|-----7----------------|--|-----7----------------------------|
Gb|---8---8--------------|--|---8---8--------------------------|
Db|-9--------------------|--|-9--------------------------------|
Ab|----------------------|--|----------------------------------|
Eb|----------------------|--|----------------------------------|
No, I just donít care. (I hear them under their breath.)
No, I just donít care. (What they sayÖ when they think that I can't hear them.) 
I see them point and I see them stare. 
There goes that stupid guy with the short blonde hair. 

    Bb         Dm      Bb  Gm
eb|---------7--6~------------| x2  
Bb|-----7------7~------------|    
Gb|---8---8----8~------8-8-4-|    
Db|-9----------8~------9-9-6-|    
Ab|------------6~------9-9-6-|
Eb|--------------------7-7-4-|
  |                          |
eb|-14-----------------------|
Bb|--------------------------|
Gb|--------------------------|
Db|----------9\13------------|
Ab|--------------------------|
Eb|--------------------------|
Short Blonde Hair
Ohh..........

    Bb         Dm      Bb  Gm
eb|---------7--6~---------------|x6  
Bb|-----7------7~---------------|    
Gb|---8---8----8~------8-8-4----|    
Db|-9----------8~------9-9-6----|    
Ab|------------6~------9-9-6----|
Eb|--------------------7-7-4----|
  |                             |
eb|-14-----------------14b16r14-|
Bb|-----------------------------|
Gb|-----------------------------|
Db|-----------------------------|
Ab|-----------------------------|
Eb|-----------------------------|
Say la de da de da de da da.
Say la de da de da de da
Say la de da de da de da da.
Say la de da de da de da
la de da de da de da da.
la de da de da de da (fade out)
Comments