Everclear - Santa Monica Chords & Tabs

 

Santa Monica Chords & Tabs

Everclear Chords & Tabs

Version: 7 Type: Tab 0 ratings
1 star 2 stars 3 stars 4 stars 5 stars
comments

Santa Monica Tab

Song: Santa Monica
Artist: Everclear
Album: Sparkle And Fade

I noticed that there was no very accurate tab for this song, i guess people just assumed it 

was to easy to bother tabing right, well it bugged the (bleep) out'a me, so i got it all down 

in exact order, easy to follow

the lyrics are at the bottom and correspond to the tabed chords 
make sure to listen to the song when you play it so you can get the rhythm down perfect



clean channel on guitar
Intro and start of Verse 1:
e-------|-------------|------
b-------|------x3-----|------
g-------|-------------|------
d--5-5--|-5-5-5-5-5-5-|------  x2
a--5-5--|-5-5-5-5-5-5-|------
e--3-3--|-3-3-0-0-3-3-|------

e----------------------------------------------------
b----------------------------------------------------
g----------7-7--7-7-9-9-5-5--5-5---------------------
d--5-5-5-5-7-7--7-7-9-9-5-5--5-5-7-7-5-5--5-5-5-5-5--
a--5-5-5-5-5-5--5-5-7-7-3-3--3-3-7-7-5-5--5-5-5-5-5--
e--3-3-0-0-----------------------5-5-3-3--3-3-0-0-3--

e-------|-------------|------
b-------|------x3-----|------
g-------|-------------|------
d--5-5--|-5-5-5-5-5-5-|------  
a--5-5--|-5-5-5-5-5-5-|------
e--3-3--|-3-3-0-0-3-3-|------

e------------------------------------------------------
b------------------------------------------------------
g----------7-7--7-7-9-9-5-5--5-5-----------------------
d--5-5-5-5-7-7--7-7-9-9-5-5--5-5-7-7-5-5--5-5-5-5-5-5--
a--5-5-5-5-5-5--5-5-7-7-3-3--3-3-7-7-5-5--5-5-5-5-5-5--
e--3-3-0-0-----------------------5-5-3-3--3-3-0-0-3-3--

e----------------------------------------------------
b----------------------------------------------------
g----------7-7--7-7-9-9-5-5--5-5---------------------
d--5-5-5-5-7-7--7-7-9-9-5-5--5-5-7-7-5-5--5-5-5-5-5--
a--5-5-5-5-5-5--5-5-7-7-3-3--3-3-7-7-5-5--5-5-5-5-5--
e--3-3-0-0-----------------------5-5-3-3--3-3-0-0-3--



Chorus 1:
e----------------------------------------------
b----------------------------------------------
d--5-5--5-5-7-7----------9-9-7-7--7-7-5-5------
g--5-5--5-5-7-7-5-5--5-5-9-9-7-7--7-7-5-5-5-5--
a--3-3--3-3-5-5-5-5--5-5-7-7-5-5--5-5-3-3-5-5--
e---------------3-3--3-3------------------3-3--

e------------------------------------------------------
b------------------------------------------------------
d------7-7-5-5--5-5-7-7----------9-9-7-7--7-7-5-5------
g--5-5-7-7-5-5--5-5-7-7-5-5--5-5-9-9-7-7--7-7-5-5-5-5--
a--5-5-5-5-3-3--3-3-5-5-5-5--5-5-7-7-5-5--5-5-3-3-5-5--
e--3-3------------------3-3--3-3------------------3-3--



e----|-------------|------
b----|------x3-----|------
g----|-------------|------
d----|-5-5-5-5-5-5-|------  
a----|-5-5-5-5-5-5-|------
e----|-3-3-0-0-3-3-|------


distortion channel on guitar kicks in here
Verse 2:
e-------|-------------|------
b-------|------x3-----|------
g-------|-------------|------
d--5-5--|-5-5-5-5-5-5-|------  
a--5-5--|-5-5-5-5-5-5-|------
e--3-3--|-3-3-0-0-3-3-|------

e------------------------------------------------------
b------------------------------------------------------
g----------7-7--7-7-9-9-5-5--5-5-----------------------
d--5-5-5-5-7-7--7-7-9-9-5-5--5-5-7-7-5-5--5-5-5-5-5-5--
a--5-5-5-5-5-5--5-5-7-7-3-3--3-3-7-7-5-5--5-5-5-5-5-5--
e--3-3-0-0-----------------------5-5-3-3--3-3-0-0-3-3--
[ Tab from: http://www.guitartabs.cc/tabs/e/everclear/santa_monica_tab_ver_7.html ]
e-------|-------------|------
b-------|------x3-----|------
g-------|-------------|------
d--5-5--|-5-5-5-5-5-5-|------  
a--5-5--|-5-5-5-5-5-5-|------
e--3-3--|-3-3-0-0-3-3-|------


e------------------------------------------------------
b------------------------------------------------------
g----------7-7--7-7-9-9-5-5--5-5-----------------------
d--5-5-5-5-7-7--7-7-9-9-5-5--5-5-7-7-5-5--5-5-5-5-5-5--
a--5-5-5-5-5-5--5-5-7-7-3-3--3-3-7-7-5-5--5-5-5-5-5-5--
e--3-3-0-0-----------------------5-5-3-3--3-3-0-0-3-3--

e----------------------------------------------------
b----------------------------------------------------
g----------7-7--7-7-9-9-5-5--5-5---------------------
d--5-5-5-5-7-7--7-7-9-9-5-5--5-5-7-7-5-5--5-5-5-5-5--
a--5-5-5-5-5-5--5-5-7-7-3-3--3-3-7-7-5-5--5-5-5-5-5--
e--3-3-0-0-----------------------5-5-3-3--3-3-0-0-3--


Chrous 2:
e----------------------------------------------
b----------------------------------------------
d--5-5--5-5-7-7----------9-9-7-7--7-7-5-5------
g--5-5--5-5-7-7-5-5--5-5-9-9-7-7--7-7-5-5-5-5--
a--3-3--3-3-5-5-5-5--5-5-7-7-5-5--5-5-3-3-5-5--
e---------------3-3--3-3------------------3-3--

e------------------------------------------------------
b------------------------------------------------------
d------7-7-5-5--5-5-7-7----------9-9-7-7--7-7-5-5------
g--5-5-7-7-5-5--5-5-7-7-5-5--5-5-9-9-7-7--7-7-5-5-5-5--
a--5-5-5-5-3-3--3-3-5-5-5-5--5-5-7-7-5-5--5-5-3-3-5-5--
e--3-3------------------3-3--3-3------------------3-3--

e----------------------------------------------
b----------------------------------------------
d--5-5--5-5-7-7----------9-9-7-7--7-7-5-5------
g--5-5--5-5-7-7-5-5--5-5-9-9-7-7--7-7-5-5-5-5--
a--3-3--3-3-5-5-5-5--5-5-7-7-5-5--5-5-3-3-5-5--
e---------------3-3--3-3------------------3-3--

e------------------------------------------------------
b------------------------------------------------------
d------7-7-5-5--5-5-7-7----------9-9-7-7--7-7-5-5------
g--5-5-7-7-5-5--5-5-7-7-5-5--5-5-9-9-7-7--7-7-5-5-5-5--
a--5-5-5-5-3-3--3-3-5-5-5-5--5-5-7-7-5-5--5-5-3-3-5-5--
e--3-3------------------3-3--3-3------------------3-3--

Ending:
e----|-------------|------
b----|------x8-----|------
g----|-------------|------
d----|-5-5-5-5-5-5-|------  
a----|-5-5-5-5-5-5-|------
e----|-3-3-0-0-3-3-|------



Verse 1:
I am still living with your ghost
lonely and dreaming of the west coast
I don't want to be your downtime
I don't want to be your stupid game

with my big black boots and an old suitcase
I do believe I'll find myself a new place
I don't want to be the bad guy
I don't want to do your sleepwalk dance anymore
I just want to see some palm trees
go and try to shake away this disease

Chorus 1:
we can live beside the ocean
leave the fire behind
swim out past the breakers
watch the world die
we can live beside the ocean
leave the fire behind
swim out past the breakers
watch the world die


Verse 2:
I am still dreaming of your face
hungry and hollow for all the things you took away
I don't want to be your good time
I don't want to be your fall-back crutch anymore

I'll walk right out into a brand new day
insane and rising in my own weird way
I don't want to be the bad guy
I don't want to do your sleepwalk dance anymore
I just want to feel some sunshine
I just want to find some place to be alone

Chorus 2:
we can live beside the ocean
leave the fire behind
swim out past the breakers
and watch the world die
x4

...yea ill watch the world die

this was my 5th tab so far so please rate me so i know how well im doing
Comments