Everclear - Santa Monica Chords & Tabs

 

Santa Monica Chords & Tabs

Everclear Chords & Tabs

Version: 3 Type: Tab 1 rating
1 star 2 stars 3 stars 4 stars 5 stars
comments

Santa Monica Tab

   
#--------------------PLEASE NOTE------------------------#
#This file is the author's own work and represents their# 
#interpretation of the song. You may only use this file #
#for private study, scholarship, or research.           #
#-------------------------------------------------------#

Song-Santa Monica
Band-Everclear
Album-Sparkle and Fade
Tabbed By-Kyle
E-mail or questions-unforgiven47@juno.com


Standard tuning e,B,G,D,A,e

intro

e |-----------------------------------------------------------|
B |-----------------------------------------------------------|
G |-----------------------------------------------------------| 
D |--5-5---5-5-2-2-5-5-x-x-x-x-5-5-2-2-5-5-x-x-x-x-5-5-2-2--5-|	
A |--5-5---5-5-2-2-5-5-x-x-x-x-5-5-2-2-5-5-x-x-x-x-5-5-2-2--5-| 
E |--3-3---3-3-0-0-3-3-x-x-x-x-3-3-0-0-3-3-x-x-x-x-3-3-0-0--3-|
	(Slowly strum last chord)

After Intro
[ Tab from: http://www.guitartabs.cc/tabs/e/everclear/santa_monica_tab_ver_3.html ]
e |-----------------------------------------|
B |-----------------------------------------|
G |-----------------------------------------|
D |--5-5---5-5-2-2-5-5-x-x-x-x-5-5-2-2-5-5--|
A |--5-5---5-5-2-2-5-5-x-x-x-x-5-5-2-2-5-5--|
E |--3-3---3-3-0-0-3-3-x-x-x-x-3-3-0-0-3-3--|  

Continue from above

e|----------------------------------------------------------------|
B|----------------------------------------------------------------|
G|----------------------------------------------------------------|
D|-5-5-2-2-5-5-x-x-x-x-5-5-2-2-7-7--7-7-9-5-5-x-x-x-x-5-5-2-2-5-5-|
A|-5-5-2-2-5-5-x-x-x-x-5-5-2-2-7-7--7-7-9-5-5-x-x-x-x-5-5-2-2-5-5-|
E|-3-3-0-0-3-3-x-x-x-x-3-3-0-0-5-5--5-5-7-3-3-x-x-x-x-3-3-0-0-3-3-|


e |-------------|
B |-------------|
G |-------------|  (Slowly strum last chord)
D |--5-5-2-2--5-|
A |--5-5-2-2--5-|
E |--3-3-0-0--3-|


Kick in bass and distortion here

e|----------------------------------------------------------------|
B|----------------------------------------------------------------|
G|----------------------------------------------------------------|
D|-5-5-2-2-5-5-x-x-x-x-5-5-2-2-7-7--7-7-9-5-5-x-x-x-x-5-5-2-2-5-5-|
A|-5-5-2-2-5-5-x-x-x-x-5-5-2-2-7-7--7-7-9-5-5-x-x-x-x-5-5-2-2-5-5-|
E|-3-3-0-0-3-3-x-x-x-x-3-3-0-0-5-5--5-5-7-3-3-x-x-x-x-3-3-0-0-3-3-|

This is all I have it's late and I'm tired
mess around with the chords shown here and keep
playing the above riff throughout the verses. 
Comments