Everclear - One Hit Wonder Chords & Tabs

 

One Hit Wonder Chords & Tabs

Everclear Chords & Tabs

Version: 1 Type: Tab 0 ratings
1 star 2 stars 3 stars 4 stars 5 stars
comments

One Hit Wonder Tab

   
Song- “One Hit Wonder”
Album- So Much for the Afterglow
Tabbed by Evergleam107

This tab is guaranteed correct.

Intro- slight distortion

E--------------------------------------------
B----9---------9--------9----9----------9----		repeat once
G---10---10---10---10---10---10---10---10----
D--------11--------11-------------11---------
A---11--------11--------11-------------------
E--------------------------------------------
[ Tab from: http://www.guitartabs.cc/tabs/e/everclear/one_hit_wonder_tab.html ]
Verse- there are two parts, one is a simple power chord and one is like above.  I’ll put the power chords above the tab, they are palm muted. Db5(9th fret) and Gb5(2nd fret) and Ab5(4th fret)
        Db5					        Gb5
E-------------------------------------------------------------------------------
B---9--------9---------9----9--------9--------2-------2-------2----2-------2----
G--10--10---10---10---10---10--10---10---10---3---3---3---3---3----3---3---3--3-
D------11--------11------------11--------11-------4-------4------------4------4-
A-------------------------------------------------------------------------------
E-------------------------------------------------------------------------------
					Repeat once
    Ab5                   Gb5		      Db5
E-------------------------------------------------------------------------------
B---4-------4-------2-------2---------9---------9---------9----9---------9------
G---5---5---5---5---3---3---3---3----10---10---10---10---10---10---10---10----10
D-------6-------6-------4-------4---------11--------11-------------11---------11
A-------------------------------------------------------------------------------
E-------------------------------------------------------------------------------
					Repeat once

Verse 2 and 3 are exactly the same with each part repeated twice.  After the second verse he sings they can’t hurt you unless you let them and then it goes to the intro for the yeah and uh.  Verse 4 after that is the same also

Verse 5 starts out with “the one hit wonder, he likes the big time, yeah.”  For the two beginning lines he plays a Db and then a Gb.  After those lines he does Ab, Gb, Db, and Cb instead of the power chords until the end of the song.  Those are power chords plus the third.  This is an extremely simple song because it repeats and repeats but it sounds cool.  


Comments