Everclear - Now That Its Over Chords & Tabs

 

Now That Its Over Chords & Tabs

Everclear Chords & Tabs

Version: 1 Type: Tab 0 ratings
1 star 2 stars 3 stars 4 stars 5 stars
comments

Now That Its Over Tab

   
Now That It's Over
Words By Art P. Alexakis
Music By Everclear
Songs From An American Movie Volume 1: Learning How To Smile


Yeah Right!
(Drum Intro x2)

(With some mandolin-y type effects)
   C
e|--------------------| x4 (with sliding effects/pick scrapes overdubbed)
B|----------1---------|
G|------0------0---0--|
D|----2---2------2----|
A|--3-----------------|
E|--------------------|
   One... Two... Three... Four...

    C                       D              F
e|-------------------(x4)|---------2---------------1--------|
B|----------1------------|-----3-----3---3-----1-----1---1--|
G|------0-----0---0------|---2---2-----2-----2---2-----2----|
D|----2---2-----2--------|-0---------------3----------------|
A|--3--------------------|----------------------------------|
E|-----------------------|----------------------------------|
  Break down, Shake for me
  Nothing ever is the way you want it to be
  Nothing even tastes right now that it's over

    C
e|--------------------| x2
B|----------1---------|
G|------0------0---0--|
D|----2---2------2----|
A|--3-----------------|
E|--------------------|

    C                       D              F
e|-------------------(x4)|---------2---------------1--------|
B|----------1------------|-----3-----3---3-----1-----1---1--|
G|------0-----0---0------|---2---2-----2-----2---2-----2----|
D|----2---2-----2--------|-0---------------3----------------|
A|--3--------------------|----------------------------------|
E|-----------------------|----------------------------------|
  Break down, shake for me
  Don't write words unless you want me to read them
  Nothing really matters now that it's over

   G                 F  
e|-----------------------------------------------|
B|----------3----------------1-------------------|
G|------0-----0---0------2-----2---3-------------|
D|----0---0-----0------3---3-----3---------------|
A|-----------------------------------------------|
E|--3----------------1---------------------------|
  Maybe we can be friends now that we're older. We can have

    G                G#      G  
e|-----------------------------------------------|
B|----------3------------------------------------|
G|------0-----0---0------------------------------|
D|----0---0-----0--------6-------5---------------|
A|---------------------6-------5-----------------|
E|--3----------------4-----4/3------3------------|
   fun like we did in the early days.  Now that it's 

    C
e|----------------------| 
B|----------1-----------|
G|------0------0---0----|
D|----2---2------2------|
A|--3----------------3~-|
E|----------------------|
  over.     Yeah right!
   
   C                         D   F      C  
e|-----------------------------------------------| (with the picked riff 
B|-----------------------------------------------|  from the 1st verse 
G|-5------------5------------7-7/10--10\5-5------|  played underneath)
D|-5------------5------------7-7/10--10\5-5------|
A|-3-(let ring)-3-(let ring)-5-5/8---8-\3-3------|
E|-----------------------------------------------|
  Break down, shake for me
  Nothing ever seems the way it ought to be
  Nothing ever seems right now that it's over

   C  G                F               G               G#      G      C             
e|----------------------------------------------------------------------|
B|----------------------------------------------------------------------|
G|-5\-----------------------------------------------------------------5-|
D|-5\-5----------------3--------------/5---------------6-------5------5-|
A|-3\-5----------------3--------------/5---------------6-------5------3-|
E|----3-(let ring)-----1-(let ring)---/3---------------4-------3--------|
 |                                                                      | 
e|----------------------------------------------------------------------|
B|------------3---------------1---------------3-------------------------|
G|--------0-----0---0-----2-----2---3-----0-----0---0-------------------|
D|------0---0-----0-----3---3-----3-----0---0-----0--------6-------5----|
A|-------------------------------------------------------6-------5------|
E|----3---------------1---------------3----------------4-----4/3------3-|
  Yeah, now maybe we can be friends
  Maybe we can be closer
  We can have fun like we did in the old days
  Now that it's over

   Bb             F              
e|--------------------------------|
B|--------------------------------|
G|-3--------------10------------\-|
D|-3--------------10------------\-|
A|-1-(let ring)---8--(let ring)-\-|
E|--------------------------------|
  Oh yeah...
[ Tab from: http://www.guitartabs.cc/tabs/e/everclear/now_that_its_over_tab.html ]
    C            Bb             F            C   
e|--------------------------------------------------------| x3
B|--------------------------------------------------------|
G|--5------------3---------------------------5------------|
D|--5------------3--------------3------------5------------|
A|--3-(let ring)-1-(let ring)---3-(let ring)-3-(let ring)-|
E|------------------------------1-------------------------|
  My bad dreams just don't seem the same, baby without you
  Oh, I wish you were willing to accept the blame for everything you do
  My nightmares just don't scare me now, baby without you, yeah yeah

    C            Bb             F               
e|--------------------------------------------------------|
B|--------------------------------------------------------|
G|--5------------3----------------------------------------|
D|--5------------3--------------3------------3------------|
A|--3-(let ring)-1-(let ring)---3-(let ring)-3-(let ring)-|
E|------------------------------1------------1------------|
  I wish that I could find the words to tell
  In the best way possible, you and your friends to go to hell

e|------------------------------|
B|------------------------------|
G|--8-10--9---------------------|
D|------------------\\\\-pick---|
A|------------------\\\\-scrape-|
E|------------------\\\\--------|
                    Yeah right!

   C                         D         F      C  
e|-----------------------------------------------------|(with picked riff
B|-----------------------------------------------------| from first verse
G|-5------------5------------7---------10--10\5-5------| played underneath)
D|-5------------5------------7---------10--10\5-5------|
A|-3-(let ring)-3-(let ring)-5---------8---8-\3-3------|
E|-----------------------------------------------------|
 |                                                     | 
 | synth arranged for guitar                           |
e|----8-6-----------8-6-------------5------------------|
B|--------8-6-5---------8-6-5---6-8---8--6-5~----------|
G|-5------------5-------------7------------------------|
D|-----------------------------------------------------|
A|-----------------------------------------------------|
E|-----------------------------------------------------|

   C                         D         F      C  
e|-----------------------------------------------------|(with picked riff
B|-----------------------------------------------------| from first verse
G|-5------------5------------7-------7/10--10\5-5------| played underneath)
D|-5------------5------------7-------7/10--10\5-5------|
A|-3-(let ring)-3-(let ring)-5-------5/8---8-\3-3------|
E|-----------------------------------------------------|
  Whoa, breakup time is never easy to do
  Nothing ever ends the way you want it to
  Nothing seems to make sense now that it's over

   G    F    G    F    G    F    G    G# G  C             
e|----------------------------------------------------| 
B|----------------------------------------------------|
G|------------------------------------------5---------|
D|-5----3----5----3----5----3---/5----6--5--5---------|
A|-5----3----5----3----5----3---/5----6--5--3---------|
E|-3----1----3----1----3----1---/3----4--3------------|
  Yeah, now maybe we can be friends
  Yeah, now that you're leaving
  You can be nice to me
  Maybe I'm dreaming 
  I am a lot better now than just okay
  Maybe I am just waking up in my own way

    C            Bb             F            C   
e|--------------------------------------------------------| x5
B|--------------------------------------------------------|
G|--5------------3---------------------------5------------|
D|--5------------3--------------3------------5------------|
A|--3-(let ring)-1-(let ring)---3-(let ring)-3-(let ring)-|
E|------------------------------1-------------------------|  
  Now that it's over
  Now that it's over

  My bad dreams just don't seem the same, baby without you
  I wish you were willing to accept the blame, 
	yeah for all the shitty things you do
  Nightmares just don't scare me now, baby without you

    C            Bb             F               
e|----------------------------------------------------------|
B|----------------------------------------------------------|
G|--5------------3------------------------------------------|
D|--5------------3--------------3------------3----\\\pick---|
A|--3-(let ring)-1-(let ring)---3-(let ring)-3----\\\scrape-|
E|------------------------------1------------1----\\\-------|
  I wish that I could find the words to tell
		  You to politely go fuck yourself

e|--------------------| x8 (with pick scrapes over the top)
B|----------1---------|
G|------0------0---0--|
D|----2---2------2----|
A|--3-----------------|
E|--------------------|
  Yeah, now that it's over
  Now that it's over
  Now that it's over
  Now that it's over
  Now that it's over

Suggestion from "Chook R.V." (chookmv@hotmail.com) 

Hey, I have a correction about your tab for Now That it's over
It's played an octave higher with this pattern of chord

| | | | | |
| | | | | |
| | | | o o
| | | o | |
| | o | | |
It is played:

1|----------------8----------|------------------10----------|
2|----------8--------8-----8-|-----------10--------10-----10|
3|-------9-----9--------9----|6x------11----11---------11---|
4|---10----------------------|----12------------------------|

1|-------------13------------|
2|-------13-------13-----13--|
3|----14----14--------14-----|
4|-15------------------------|

Comments