Everclear - My Sexual Life Chords & Tabs

 

My Sexual Life Chords & Tabs

Everclear Chords & Tabs

Version: 1 Type: Tab 0 ratings
1 star 2 stars 3 stars 4 stars 5 stars
comments

My Sexual Life Tab

   
My Sexual Life
Sparkle and Fade
Words By Art Alexakis 
Music By Everclear


e|--9--9--9--9--9--10--10--9--9--7--7--0-------------
b|--7--7--7--7--7---7---7--7--7--7--7--0-------------
g|--7--7--7--7--7---7---7--7--7--7--7--0-------------
d|---------------------------------------------------
a|---------------------------------------------------
e|---------------------------------------------------
[ Tab from: http://www.guitartabs.cc/tabs/e/everclear/my_sexual_life_tab.html ]
e|--5--5--5--5--5--9--9--7--7--0--0--
b|--7--7--7--7--7--x--x--x--x--0--0--
g|--6--6--6--6--6--9--9--7--7--0--0--
d|-----------------------------------
a|-----------------------------------
e|-----------------------------------

chorus
G_____________A7
Swim in the heavy water
____________D
Buried in the sand 
____________Bm___________________Gm
Happy hearts fall from my stupid hands
______F#m_____E______D
I can't hide my sexual life
Comments