Everclear - Like A California King Chords & Tabs

 

Like A California King Chords & Tabs

Everclear Chords & Tabs

Version: 1 Type: Tab 0 ratings
1 star 2 stars 3 stars 4 stars 5 stars
comments

Like A California King Tab

   
“Like a California King”
Everclear
Tabbed by evergleam107

Intro- distorted with harmonizer effect (sounds one octave higher than actually played)
The parenthesis is a second guitar part where he plays the B# note and bends it.
				  *
E-------------------------0---------------------------------------------------
B-------------------------0---------------------------------------------------
G-------------------------1-----------------------------------(4b)---(4b)--(4b)
D-------------------------2---------------------------------------------------
A---------2---------------2-------------2----------------2----2----2----2----2
E--2---4-----4---2---4----0------2---4-----4---2---4-----0----0----0----0----0

E-------------------------------------------------------------------------------
B-------------------------------------------------------------------------------
G--------------------------(4b)--(4b)--(4)---------- ---------(4b)--(4b)-4------
D-----------------------------------------------------2---4---------------------
A-------2-------------2---2---2---2---2---------2---4--------2---2----2---2---2-
E-2---4---4---2---4---0---0---0---0---0---2---4--------------0---0----0---0---0-

Play the part after the asterisk once more.

Verse- distorted.  The verse is so simple I’m not going to put it down.  It is a simple palm muted E5 power chord picked moderately slow.  And at the end Art does the above riff.

Chorus- starts with But it makes no sense to me, there is nothing new about you…
	There is a simple note picking and overlying chord part in the chorus.
[ Tab from: http://www.guitartabs.cc/tabs/e/everclear/like_a_california_king_tab.html ]
“…there is nothing new about you, just another self made man…”
    F#                  A                  E                    C#
E---12-----------------12-----------------12--------------------12------------
B----------12-----------------12------------------12--------------------12----
G-------------------------------------------------------------------------------
D-------------------------------------------------------------------------------
A-------------------------------------------------------------------------------
E-------------------------------------------------------------------------------

The chords are power chords with the third

Verse 3 is the same as above except he picks the palm muted E5 a little faster.  Over time he releases the palm mute.

Interlude- This part has a clean picking part with some odd effect, maybe the harmonizer


         “…I will find you in that crowded room, I will knock you off your feet…”
E--------0----------------0---------------------0------------------------0-----
B---------------0--------------0----------------------0-----------------------0-
G-------------------------------------------------------------------------------
D-------------------------------------------------------------------------------
A------------------------------------------2----------------------4-------------
E---2-----------------5--------------------0------------------------------------

After that is the What makes you… part where all Art does is strum a E, E, C, B
	Again those are power chords with the third.  The outro is like the intro.



Comments