Everclear - I Will Buy You A New Life Chords & Tabs

 

I Will Buy You A New Life Chords & Tabs

Everclear Chords & Tabs

Version: 3 Type: Tab 0 ratings
1 star 2 stars 3 stars 4 stars 5 stars
comments

I Will Buy You A New Life Tab

   
i will buy you a new life
everclear
so much for the afterGlow
tabbed by Rob(korncrypt@hotmail.com)

intro:               4x
G---------------------|
D-0--0--0--0-0--0--0-*|
A-2--2--2--2-2--2--2-*|
E-3--3--3--3-3--3--3--|

verse(a):
e---------3--------------
B---------3--------------
G---------0--------------
D-----0------------------
A-----2----------2--0----
E-----3----------------3-
[ Tab from: http://www.guitartabs.cc/tabs/e/everclear/i_will_buy_you_a_new_life_tab_ver_3.html ]
verse(b):
e----------3---------------|------------------------------
B----------3---------------|------------------------------
G----------0---------------|----------------------6-5-3-1-
D---0--0-------------------|--6--6--6--6--------6---------
A---0--0-----------2--0----|--4--4--4--4-----/4-----------
E---3--3-----------------3-|------------------------------
*not sure of the verse(b) part, i got it from another tab, but i moved 
it up the neck, it's still the same notes....

fill at end of verse:
A---------6
E--4--6/8--

prechorus:(this chord a few times)
D--5-
A--5-
E--3-

chorus:(these chords a few times each)
G----5-----6---|               G--5--6-              G-----5--3-----6-
D-5--5--3--6--*| 3x then this  D--5--6-  then these: D--5--5--3--5--6-
A-5--3--3--4--*|       once:   A--3--4-              A--5--3--1--5--4-
E-3-----1------|               E-------              E--3--------3----

then verse
     prechorus
     chorus  
     interlude with bass and organ

i hope i didn't miss any guitar parts
I corrected most of what i had
Comments