Everclear - I Will Buy You A New Life Chords & Tabs

 

I Will Buy You A New Life Chords & Tabs

Everclear Chords & Tabs

Version: 4 Type: Bass Tab 0 ratings
1 star 2 stars 3 stars 4 stars 5 stars
comments

I Will Buy You A New Life Bass Tab

   
Just listen to where you play and it will all go together.
Email me if there is anything wrong.

G|-------------|
D|-------------|
A|-------------|  x4
E|-3-3-3-333-3-|


G|-----------|
D|-----------|
A|-----------|  x1
E|-3-3-3-333-|

G|----------------|----------------|--------------------------|
D|----------------|----------------|--------------------------|
A|------2-2-2-0---|------2-2-2-0---|------2-2-2-0-3-3-3-3---3-|
E|-3-3------------|-3-3------------|-3-3------------------0---|

G|----------------|----------------|--------------------------|
D|----------------|----------------|--------------------------|
A|------2-2-2-0---|------2-2-2-0---|------2-2-2-0-3-3-3-3-3---|
E|-3-3------------|-3-3------------|-3-3----------------------|

G|-------------|
D|-------------|
A|-------------|  x4
E|-3-3-3-333-3-|

[ Tab from: http://www.guitartabs.cc/tabs/e/everclear/i_will_buy_you_a_new_life_btab_ver_4.html ]
G|-----------|
D|-----------|
A|-----------|  x1
E|-3-3-3-333-|

G|----------------|----------------|--------------------------|
D|----------------|----------------|--------------------------|
A|------2-2-2-0---|------2-2-2-0---|------2-2-2-0-3-3-3-3---3-|
E|-3-3------------|-3-3------------|-3-3------------------0---|

G|----------------|----------------|--------------------------|
D|----------------|----------------|--------------------------|
A|------2-2-2-0---|------2-2-2-0---|------2-2-2-0-3-3-3-3-3---|
E|-3-3------------|-3-3------------|-3-3----------------------|


G|---------|---------|---------|---------|
D|---------|---------|-2-2-2-2-|---------|
A|---------|-2-2-2-2-|---------|-3-3-3-3-| x3
E|-3-3-3-3-|---------|---------|---------|

G|---------|---------|------------|
D|---------|---------|-2-2-2-2-2-2|
A|---------|-2-2-2-2-|------------|
E|-3-3-3-3-|---------|------------|


That's it!
Comments