Everclear - Heartspark Dollar Sign Chords & Tabs

 

Heartspark Dollar Sign Chords & Tabs

Everclear Chords & Tabs

Version: 1 Type: Bass Tab 0 ratings
1 star 2 stars 3 stars 4 stars 5 stars
comments

Heartspark Dollar Sign Bass Tab

Song Title: Heartspark $sign
Artist: Everclear
----------------------------------------------
Everclear Heartspark $ sign

G------------------------------------------------------------------
D------------------------------------------------------------------
A------5555----3333----5555----------------------------------------
E--3333------------------------------------------------------------

REPEAT THROUGH THE WHOLE SONG

iF YOU have any Doors tabs submit them please!!!!!!!!!!!!!!!!!!!

penguin boy

Submitted by:  Penguin Boy (

THIS GUY IS WAY OFF....check it out......


HEARTSPARK DOLLARSIGN 
tabbed by:Katy Winship
submitted by: kurt  everclear_bass@hotmail.com
intro: 
1) 
G-------------------- 
D-------------------- Play this twice 
A--0-0-0-0----------- 
E-----------3-3-3---- 

2) 
G---------------------------------------- 
D---------------------------------------- 
A--0-0-0-0------------------------------- 
E----------3-3-3-3-3-3-3-3-3-3-3-3-3-3-3- 

3) 
main riff: 
G------------------------------------- 
D------------------------------------- play 
A-----------5-5-5-5-5-3-3-3-3-5-5-5-5- 5x 
E--3-3-3-3---------------------------- 

4) 
G--------------------------------- 
D--------------------------------- 
A--0-0-0-0-0-0-0-0-3-3-3-3-3-3-3-3 
E--------------------------------- 
repeat main 4x 
then part 4 once and main once...then to 
[ Tab from: http://www.guitartabs.cc/tabs/e/everclear/heartspark_dollar_sign_btab.html ]
5) 
G---------------------------------------------------------- 
D---------------------------------------------------------- 
A----0-0-------0-0-------3-3-3-3-----------5-5-5-5-0-0-0-0- 
E---------0-0-------0-0-----------3-3-3-3------------------ 

6) 
G------------------------------------------------------ 
D------------------------------------------------------ 
A---0-0------0-0-------3-3-3-3-3-3-3-3-5-5-5-5-5-5-5-5- 
E-------0-0-------0-0---------------------------------- 

back to main riff..play that 5x 

7) 
G---------------------------------- 
D---------------------------------- 
A--0-0-0-0-0-0-0-0----------------- 
E------------------0-0-0-0-0-0-0-0- 

8) 
G------------------------------------------- 
D------------------------------------------- 
A--3-3-3-3-2-2-2-2-0-0-0-0-5-5-5-5---------- 
E-----------------------------------3-3-3-3- 
go back to step 1...play it 2x and then... 

9) 
G---------------------------------------------- play with parenth. 
D---------------------------------------------- once...the rest starting 
A--(0-0-0-0)---------5-5-5-5-5-3-3-3-3-5-5-5-5- on 3 3x... 
E------------3-3-3----------------------------- 

play step 4 more...and then 
10) 
G----------------------------------- 
D----------------------------------- 
A---0-0-0-0-0-0-0-0-3-3-3-3-5-5-5-5- 
E----------------------------------- 

and then back to main...play it 2x 
then steps 6 and 7, then back to main...play main 3x 
and then... 

end 
G------------------------------------- 
D------------------------------------- 
A--0-0-0-0-0-0-0-0-3-3-3-3-5-5-5-5---- 
E-----------------------------------3- 


Comments