Everclear - Fire Maple Song Chords & Tabs

 

Fire Maple Song Chords & Tabs

Everclear Chords & Tabs

Version: 1 Type: Tab 0 ratings
1 star 2 stars 3 stars 4 stars 5 stars
comments

Fire Maple Song Tab

This tab is correct, you can e-mail me if you have a question. You can listen to find the tempo and when to strum, this is just the tab.
Normal tuning	    s = slide	b = bend	pl = pulloff    h = hammer on

Intro-clean

E-------------------------
B--------9----------------
G-------------9----7------
D-------------------------	4 times
A-6s7------7-----7----7----
E------0------------------

Verse-clean

E----------------------------------------------------------------------
B---------------------------- 9--9------------------------------9---9--
G---------------------------- 9--9------------------------------9---9--
D-------1s2--2s4--4s6---------9--9---------1s2--2s4--4s2--------9---9--
A--1s2----------------------- 7--7----1s2-----------------------7---7--
E----------------------------------------------------------------------

First Chorus-clean

E---4----4-----5----0--
B---4----5-----5----0--
G---4----6-----6----1--
D---6----6-----7----2--
A---6----4-----7----2--
E---4----------5----0--

Verse-clean, same as above

Second Chorus-distorted

E---4---4--------4---4-------5---5-------0---0---
B---4---4--------5---5-------5---5-------0---0---
G---4---4--------6---6-------6---6-------1---1---	repeat
D---6---6--------6---6-------7---7-------2---2---	again
A---6---6--------4---4-------7---7-------2---2---
E---4---4--------------------5---5-------0---0---






End of second time add high G note on 1 string
[ Tab from: http://www.guitartabs.cc/tabs/e/everclear/fire_maple_song_tab.html ]
E---0---0---3--3--3--3--3
B---0---0------------------
G---1---1------------------
D---2---2------------------
A---2---2-----------------
E---0---0-----------------

Interlude-distorted, palm muted

E--------------------------------------------------------
B--------------------------------------------------------
G-------------------------------5-5-5-5-5----------------
D-------------------------------3-3-3-3-3----------------
A---6-6-6-6-6---7-7-7-7-7----------------2-2-2-2-2-------
E---4-4-4-4-4---5-5-5-5-5----------------0-0-0-0-0-------

Chorus-distorted

Random mini solos during third chorus

E------------------------------|-------------------|-------------------
B------------------------------|-14-13-12----------|----12----12-10-9--
G---11b-p-9--------------------|-----------14-13s0-|-12b---12b--------9
D--------------11-9------------|-------------------|-------------------
A---------------------11-9-7---|-------------------|-------------------
E------------------------------|-------------------|-------------------

E-----------------------------
B------------------9h12-------
G-------------9h11------11bs0-
D--------9h11-----------------
A---9h11----------------------
E-----------------------------


End with verse like above but with distortion

Outro- distorted

E---------------------------------------
B---------------------------------------
G---------------------------------------
D---------------------------------------
A---7s6--4--2h4--2h4--2-----------------
E--------------------------0-2h4p2p0--0-
 

Have fun 



Comments