Everclear - Father Of Mine Chords & Tabs

 

Father Of Mine Chords & Tabs

Everclear Chords & Tabs

Version: 6 Type: Tab 0 ratings
1 star 2 stars 3 stars 4 stars 5 stars
comments

Father Of Mine Tab

Father of Mine
by Everclear

Legend:
> = slide
\ = indefinite slide
/ = rhythm slash
() = notes inside parentheses are not played every time
b9-r = prebend note, pick, then release bend
h9 = hammer on
17b = pick and bend

All bends are 1 whole step

! -  +  -
1 e and ah...

I'm pretty sure this is at least 90% correct

Tuning: down 1/2 step (or, more accurately, down 1/4 step)

   ! - + - ! - + - ! !  !  -  +  -  !  -  +  -  ! !
1 |--------------------|----------------------------|
2 |--------------------|----------------------------|
3 |--------------------|----------------------------|
4 |7---7---7-7-7-7-----|11----11----11-11-11-11-----|
5 |5---5---5-5-5-5-----|9-----9-----9--9--9--9------|
6 |--------------------|----------------------------|

   !  -  +  -  !  -  +  -  ! !  ! - + - ! - + - ! !
1 |----------------------------|--------------------|
2 |----------------------------|--------------------|
3 |----------------------------|--------------------|
4 |12----12----12-12-12-12-----|9---9---9-9-9-9-----|
5 |10----10----10-10-10-10-----|7---7---7-7-7-7-----|
6 |----------------------------|--------------------|

That's the first verse.
When you get to the slides, it switches to this:

      ! - + - ! - + - ! - + - ! - + -  
1 ||----------------------------------|
2 ||----------------------------------|
3 ||*-7---7---7-7-7-7---------7\------|
4 ||*-7---7---7-7-7-7---------7\------|
5 ||--5---5---5-5-5-5---------5\------|
6 ||----------------------------------|

   !  -  +  -  !  -  +  -  !  -  +  -  !  -  +  -  
1 |-----------------------------------------------|
2 |-----------------------------------------------|
3 |11----11----11-11-11-11--------------11\-------|
4 |11----11----11-11-11-11--------------11\-------|
5 |9-----9-----9--9--9--9---------------9\--------|
6 |-----------------------------------------------|

 _________________________________________________
|1st ending
   !  -  +  -  !  -  +  -  !  -  +  -  !  -  +  -  
1 |-----------------------------------------------|
2 |-----------------------------------------------|
3 |12----12----12-12-12-12--------------12\-------|
4 |12----12----12-12-12-12--------------12\-------|
5 |10----10----10-10-10-10--------------10\-------|
6 |-----------------------------------------------|

     ____________________________________
        ! - + - ! - + - ! - + - ! - + -
     1 |--------------------------------||
     2 |--------------------------------||
     3 |9---9---9-9-9-9----------9\----*||
     4 |9---9---9-9-9-9----------9\----*||
     5 |7---7---7-7-7-7----------7\-----||
     6 |--------------------------------||

 ___________________________________________________________________
|2nd ending
   !  -  +  -  !  -  +  -  !  -  +  -  !  -  +  -  ! + ! + ! + ! + 
1 |-----------------------------------------------|----------------||
2 |-----------------------------------------------|----------------||
3 |12----12----12-12-12-12-------12----11----10---|9-/-/-/-/-/-/-/-||
4 |12----12----12-12-12-12-------12----11----10---|9-/-/-/-/-/-/-/-||
5 |10----10----10-10-10-10-------10----9-----8----|7-/-/-/-/-/-/-/-||
6 |-----------------------------------------------|----------------||

Chorus:

(There are actually a few parts going on here. This is the main one.)

   ! - + - ! - + - ! - + - ! - + -  ! - + - ! - + - ! - + - ! - + -  2x
1 |--------------------------------|--------------------------------||
2 |--------------------------------|--------------------------------||
3 |7---7---7---x-x-x-x-------------|-------------------------------*||
4 |7---7---7---x-x-x-x-7---7---5---|5---4---4---x-x-x-x-5---5---7--*||
5 |5---5---5---x-x-x-x-7---7---5---|5---4---4---x-x-x-x-5---5---7---||
6 |--------------------5---5---3---|3---2---2---x-x-x-x-3---3---5---||
[ Tab from: http://www.guitartabs.cc/tabs/e/everclear/father_of_mine_tab_ver_6.html ]
   ! - + - ! - + - ! - + - ! - + - 2x ! - + - ! - + - ! - + - ! - + -  
1 |---------------------------------||--------------------------------||
2 |---------------------------------||--------------------------------||
3 |7---7---7-7-7-7--------(7\)-----*||7---7---7-7-7-7\----------------||
4 |7---7---7-7-7-7--------(7\)-----*||7---7---7-7-7-7\----------------||
5 |5---5---5-5-5-5--------(5\)------||5---5---5-5-5-5\----------------||
6 |---------------------------------||--------------------------------||

1st chorus has no slides.

That's it for the rhythm part. The rest is just fills and a solo.

Fill #1 (end of 1st chorus)

   !  -  +  -  !  -  +  -  !  -  +  -  !  -  +  -  ! ! ! ! 
1 |-----------------------------------------------|--------|
2 |-----------------------------------------------|--------|
3 |b9-r--7-----------7----------------------------|--------|
4 |---------9--7--9-----9--7--9-------------------|--------|
5 |------------------------------7--9--7--9--7----|5-------|
6 |-----------------------------------------------|--------|


Fill #2 (2nd verse, right channel, also in verse 3)

   !  -  +  -  !  -  +  -  !  -  +  -  !  -  +  -  ! ! ! ! 
1 |-----------------------------------------------|--------|
2 |-----------------------------------------------|--------|
3 |-----------------------------------------------|--------|
4 |-----------------------------------------------|0-------|
5 |------------------------------7-h9--10>9--7-h9-|--------|
6 |-----------------------------------------------|--------|


Fill #3 (end of 3rd verse, left channel)

   ! - + - ! - + - ! - + - ! - + -  ! ! ! ! 
1 |--------------------------------|--------|
2 |--------------------------------|--------|
3 |--------------------------------|--------|
4 |------------------7-9-7---7-9-6-|7-------|
5 |----------------9-------9-------|--------|
6 |--------------------------------|--------|


Pre-Solo
           this part isn't very clear---------------------------|
   !   -   +   -   !   -   +   -   !   -   +   -   !   -   +   -
1 |--------b12-r---10---------------------------------------------|
2 |--------------------12--10-------------------------------------|
3 |----------------------------11--9---11--7-------7---9---b9--r--|
4 |---------------------------------------------------------------|
5 |---------------------------------------------------------------|
6 |---------------------------------------------------------------|

Solo
   !  -  +  -  !  -  +  -  !  -  +  -  !  -  +  -
1 |-----------------------------------------------|
2 |-----------------------------------------------|
3 |b9-r--7-----------7--9--b9-r--7-----7----------|
4 |---------9--7--9------------------9-------9>>>>| <--this slide is up
5 |-----------------------------------------------|    to fret 19 but
6 |-----------------------------------------------|    ends indefinitely

   !   -   +   -   !   -   +   -   !   -   +   -   !   -   +   -
1 |---------------------------------------------------------------|
2 |------------------------17------17b-------------17b------------|
3 |16------16--19--16--19------19---------------------------------|
4 |----19---------------------------------------------------------|
5 |---------------------------------------------------------------|
6 |---------------------------------------------------------------|

   !   -   +   -   !   -   +   -   !   -   +   -   !   -   +   -
1 |---------------------------------------------------------------|
2 |17b-----------------------------7---10--7----------------------|
3 |----------------14\-----7---9---------------9---7-------7---9--|
4 |----------------------------------------------------9----------|
5 |---------------------------------------------------------------|
6 |---------------------------------------------------------------|

           this part also isn't very clear----|
   !  -  +  -  !  -  +  -  !  -  +  -  !  -  +  -  ! ! ! !
1 |-----------------------------------------------|--------||
2 |-----------------------------------------------|--------||
3 |b9-r--7-----------------------------7----------|7-------||
4 |---------9--7-----------9--7--9--7-----9--7--9-|--------||
5 |---------------9--7--9-------------------------|--------||
6 |-----------------------------------------------|--------||


Tabbed by Scott Miller
Comments