Everclear - Father Of Mine Chords & Tabs

 

Father Of Mine Chords & Tabs

Everclear Chords & Tabs

Version: 3 Type: Tab 0 ratings
1 star 2 stars 3 stars 4 stars 5 stars
comments

Father Of Mine Tab

This is the first tab i write so it will probably have so it will
probably have some things that are wrong with it.  E-mail me if u
find any mistakes.


Verse:

 e --------------------------------------------------
 b --------------------------------------------------
 g --77-7777-1111--1111111--1212-12121212--99-9999---
 d --77-7777-1111--1111111--1212-12121212--99-9999---
 a --55-5555--9 9--9 9 9 9--1010-10101010--77-7777---
 E --------------------------------------------------

Before Chorus:
 
 e -----------------------------------------
 b -----------------------------------------
 g --7777--1111111--12121212-12\\11\\10\\999---
 d --7777--1111111--12121212-12\\11\\10\\997---
 a --5555--9 9 9 9--10101010-10\\-9\\-8\\777---
 E -----------------------------------------

Chorus:
[ Tab from: http://www.guitartabs.cc/tabs/e/everclear/father_of_mine_tab_ver_3.html ]
 e -------------------------------
 b -------------------------------
 g --77777------------------------
 d --77777-777-555-44444-55-777---
 a --55555-777-555-22222-55-777---
 E --------555-333-22222-33-555---

Solo:

 e ---------------------5h7p5-5-7-5-7-10---
 b --7p5-------5-7p5----------7------------
 g -----7p4-4-7-----7p4-7-4\\7--------------
 d --------7-------------------------------
 a ----------------------------------------
 E ----------------------------------------
 
 e --12-13^13^---13^------5----------------
 b -----------10\\---5-7-7-5-7b9-7-5-5-5b7r5
 g ---------------------------7------------
 d ----------------------------------------
 a ----------------------------------------
 E ----------------------------------------

 e ----------------------------------------
 b --3-------------------------------------
 g ---4-2----------------------------------
 d ------4-2-2-------2---------------------
 a ---------5-5-5-2-5-5--------------------
 E ----------------------------------------
Comments