Everclear - Father Of Mine Chords & Tabs

 

Father Of Mine Chords & Tabs

Everclear Chords & Tabs

Version: 2 Type: Tab 0 ratings
1 star 2 stars 3 stars 4 stars 5 stars
comments

Father Of Mine Tab

   
Father of Mine 
Everclear
Transcribed by CHriS DupoNT

This song is tuned up about 1 quarter step.  This means that the C#, for example is neither a C# nor a D.  It's somewhere right in between. So what you have to do is listen to the CD and play the base notes of the power chords on your A string.  It will sound flat.  Tune the A string UP until the notes sound right.  Then tune the rest of your guitar to the A string.  So tuning should be EADGBE about 1/4 step up.
S=slide  
ho=hammer on
po=pull off
b=bend 
r=return

Verses
C#5-F5-F#5-Eb5 (repeated)
----------------------------------
----------------------------------
-6--10--11---8--------------------
-6--10--11---8--------------------
-4---8---9---6--------------------
----------------------------------

Breakdown
(heavy part....whatever you want to call it.)

C#5-G#5-F#5-F5--F#5-G#5-C#5...and repeat it.

-------------------------------------------------
-------------------------------------------------
6-------------------6----------------------------
6--6--4--3----4--6--6----------------------------
4--6--4--3----4--6--4----------------------------
---4--2--1----2--4-------------------------------

Cool riff during 1st breakdown 
[ Tab from: http://www.guitartabs.cc/tabs/e/everclear/father_of_mine_tab_ver_2.html ]
-------------------------------------------------------
-------------------------------------------------------
-8b10r8-------8po-6------------------------------------
--------8-6h8-------6h8--6h8--6h8--6--4----------------
-------------------------------------------------------
-------------------------------------------------------

Riff duirng second verse
("and you don't see me")

--------------------------------------
--------------------------------------
--------------------------------------
1h3--1h3--1h3-------------------------
----------------4---------------------
--------------------------------------





!SOLO!

-------------------------------------------------------9--9------
8b10r8--6----------6-8---8b10r8--6---6----11po9----11------------
-----------8-6h8-------------------8------------10---------------
-----------------------------------------------------------------
-----------------------------------------------------------------
-----------------------------------------------------------------


-11--9--11b12---12----12----12-s--------------
-------------------------------------9--------
----------------------------------10---10-s---
----------------------------------------------
----------------------------------------------
----------------------------------------------


-----------------------------------------------------------------
-----------------------------------------------------------------
-6-8--8b10r8--6-----------------6---8po6--------------------------
-----------------8-6-8------6h8---8-----8po6---------------------
-----------------------8po6--------------------------------------
-----------------------------------------------------------------

Comments