Everclear - Everything To Everyone Chords & Tabs

 

Everything To Everyone Chords & Tabs

Everclear Chords & Tabs

Version: 4 Type: Tab 0 ratings
1 star 2 stars 3 stars 4 stars 5 stars
comments

Everything To Everyone Tab

#----------------------------------PLEASE NOTE--------------------------------#
#This file is the author's own work and represents their interpretation of the#
#song. You may only use this file for private study, scholarship, or research.#
#-----------------------------------------------------------------------------#
#-- File created with Instab - http://www.pconline.com/~smcarey/instab.html --#
#-----------------------------------------------------------------------------#

Author/Artist: Everclear
Title: Everything to Everyone
Album: So Much for the Afterglow

Lyrics:

You put yourself in stupid places 
Yes I think you know it's true 
Situations where it's easy to look down on you
I think you like to be the victim 
I think you like to be in pain
I think you make yourself a victim almost every single day 

You do what you do 
You say what you say 
You try to be everything to everyone 
You know all the right people 
You play all the right games 
You always try to be everything to everyone 

Yeah you do it again 
You always do it again 

You say they taught you to read and write 
Yeah they taught you how to count 
I say they taught you how to buy and sell your own body by the pound
I think you like to be their simple toy 
I think you love to play the clown 
I think you are blind to the fact that the hand 
     you hold is the hand that holds you down 
[ Tab from: http://www.guitartabs.cc/tabs/e/everclear/everything_to_everyone_tab_ver_4.html ]
Spin around and fall down 
Do it again 
You stumble and fall 
Yeah why don't you ever learn
Spin around and fall down 
Do it again
You stumble and you fall 
I wonder if you will ever learn
Yeah why won't you ever learn 
Come on now 
Do that stupid dance for me 
You do what you do 
You say what you say 
You try to be everything to everyone 
You jump through the big hoop 
You play all the right games 
You try to be everything to everyone 
Spin around and fall down 
Do it again 
You stumble and you fall 
Yeah you do it again 
Spin around and fall down 
Do it again 
You stumble and you fall  

Fill; Keyboard arranged for guitar:

--15-12-15-12-|-12-15-12---15-12--15-12---|-----------------------------------
--------------|---------------------------|-----------------------------------
--------------|---------------------------|-----------------------------------
--------------|---------------------------|-----------------------------------
--------------|---------------------------|-----------------------------------
--------------|---------------------------|-----------------------------------
 Verse/Chorus:                                                                

------------------|-----------------------------------------------------------
------------------|-----------------------------------------------------------
------10-----7----|-----------------------------------------------------------
--10--10--7--7----|-----------------------------------------------------------
--10--8---7--5----|-----------------------------------------------------------
--8-------5-------|-----------------------------------------------------------
 "Spin around and fall down..." Part:                                         

------------------|------------------|----------------------------------------
------------------|------------------|----------------------------------------
------------------|------------------|----------------------------------------
------------------|------------------|----------------------------------------
--3-3-3-3--3-3-3--|--5-5-5-5--5-5-5--|----------------------------------------
--1-1-1-1--1-1-1--|--3-3-3-3--3-3-3--|----------------------------------------
                                                                              

Comments