Everclear - Everything To Everyone Chords & Tabs

 

Everything To Everyone Chords & Tabs

Everclear Chords & Tabs

Version: 1 Type: Tab 1 rating
1 star 2 stars 3 stars 4 stars 5 stars
comments

Everything To Everyone Tab

Everclear "Everything to Everyone"

This tab is correct.  Any questions feel free to e-mail me.
p=pull off     s=slide

The intro is with a 24-fret guitar but most people don't have one so you can do it an octave lower but this is how Art did it. The slide you hear in the beginning is from a slide guitar going from fifth fret to the second.

E---24-20-24-20---20-24-20-24-20-24-20---20-24-20-----
B---20-17-20-17---17-20-17-20-17-20-17---17-20-17-----
G-----------------------------------------------------
D-----------------------------------------------------
A-----------------------------------------------------
E-----------------------------------------------------

The first verse is all bass

Chorus-clean with light tremolo

E---8---8---8---------------5--5--5----------8---8---8-------------5--5--5---
B---8---8---8-----10-10-10--5--5--5---7-7-7--8---8---8---10-10-10--5--5--5---
G---9---9---9-----10-10-10--6--6--6---7-7-7--9---9---9---10-10-10--6--6--6---
D---10--10-10-----10-10-10--7--7--7---7-7-7--10--10--10--10-10-10--7--7--7---
A---10--10-10-----8--8---8--7--7--7---5-5-5--10--10--10---8--8---8-7--7--7---
E---8---8---8---------------5--5--5----------8---8---8-------------5--5--5---
[ Tab from: http://www.guitartabs.cc/tabs/e/everclear/everything_to_everyone_tab.html ]
E---3--3--3---8---8---8----1-1-1---5--5--5-----------8---8---8------------5-5-5-
B---3--3--3---8---8---8----1-1-1---5--5--5---7-7-7---8---8---8--10-10-10--5-5-5-
G---4--4--4---9---9---9----2-2-2---6--6--6---7-7-7---9---9---9--10-10-10--6-6-6-
D---5--5--5---10-10--10----3-3-3---7--7--7---7-7-7---10-10--10--10-10-10--7-7-7-
A---5--5--5---10-10--10------------7--7--7---5-5-5---10-10--10---8--8--8--7-7-7-
E---3--3--3---8---8---8------------5--5--5-----------8---8---8------------5-5-5-

Bridge- clean and it is an alternating pattern of and F bar chord (first fret) and a G bar chord (third fret).

Verse two is like the chorus with a different strum pattern.  The second chorus is the same and the second bridge and F, G, Am (fifth fret), and then another F bar chord.

Interlude after "I wonder if you'll ever learn..."

E-------------------10---------------------------------10--------------
B---s5--9-10p9-------9------10s0---0s5---9-10p9---------9--------10s0--
G---s5-----------9------9----------0s5---------------9-------9---------
D----------------10----10---------------------------10-------10--------
A----------------------------------------------------------------------
E----------------------------------------------------------------------

The last chorus has chords C, F, Am, and D in that order with tremolo 3 and 1/2 times.
It then fades into a part of bar chords like the verses and then finally ends with 10 measures of the bridge part with chords F, G, and Am.

    



Comments