Everclear - Electra Made Me Blind Chords & Tabs

 

Electra Made Me Blind Chords & Tabs

Everclear Chords & Tabs

Version: 1 Type: Tab 0 ratings
1 star 2 stars 3 stars 4 stars 5 stars
comments

Electra Made Me Blind Tab

“Electra Made Me Blind”
Everclear
Tabbed by Evergleam107
s= slide      h= hammer on
Intro: slight distortion 

E---------------8---8--------------------
B---5---8---5---5---5---5---5---8---5----
G---6---6---6---6---6---6---6---6---0----
D---7---7---7---7---7---7---7---7--------
A----------------------------------------
E----------------------------------------

That’s played for four measures then kick in the heavy distortion.  There is a second guitar part doing an A chord in the background for all who care.

Right before verse and at the end of each verse, at the “I know” or “Yeah, just go” part.

E---0---0---0-----------0----0----0----------------------------8---8------------
B---7---10--0---x---x---10---13---0----x---x---5---8---5---5---5---5---5---8---5
G---8---8---8---x---x---11---11---11---x---x---6---6---6---6---6---6---6---6---0
D---9---9---9---x---x---12---12---12---x---x---7---7---7---7---7---7---7---7----
A-------------------------------------------------------------------------------
E-------------------------------------------------------------------------------

Verse 1 and 2 are the intro with the thing above at the end

Before Verse 3
					         Pm-----------------|
E----------------------------0---0---0---0-------------------------------------
B----------------------------0---0---0---0------------------9--9--9--9--9---9--
G---6---6---6----2---2-------1---1---1---1------------------9--9--9--9--9---9--
D---7---7---7----3---3---x-x-2---2---2---2------------------9--9--9--9--9---9-- 
A---7---7---7--x-3---3---x-x-2---2---2---2---2---2---2---2--7--7--7--7--7---7--
E---5---5---5--x-1---1---x-x-0---0---0---0---0---0---0---0--0--0--0--0--0---0--

Chorus- distorted, you play this three times and then the riff above the last time.

E----------------------------0---0---0---0------------------------
B----------------------------0---0---0---0------------------------
G---6---6---6-----2---2--x---1---1---1---1---5---5---5---5--------
D---7---7---7-----3---3--x---2---2---2---2---6---6---6---6--------
A---7---7---7--x--3---3--x---2---2---2---2---6---6---6---6--------
E---5---5---5--x--1---1--x---0---0---0---0---4---4---4---4--------

Solo- The single notes almost sound like a tremolo pick if you want to play it that way.
E--------------8-8-9-9-9-9-8---7---5s-------------------------------------------
B--8-8-8-8-8-8-8-8-8-8-8-8-7---6---5s----------------------------------10-10-10-
G--9-9-9-9-9-9-9-9-9-9-9-9-8---7---6s------------------------9-9-9-9-9----------
D---------------------------------------10h11-11-11-11-11-11--------------------
A-------------------------------------------------------------------------------
E-------------------------------------------------------------------------------

[ Tab from: http://www.guitartabs.cc/tabs/e/everclear/electra_made_me_blind_tab.html ]
E----------------------------------------x--------------------------------------
B---10-10-9-9--------12-12-13-12-12-12---x--------------------------------------
G-------------9-9s12-12-12-12-12-12-12---x-------------------------9-9-9-9-9----
D---------------------------------------------10h11-11-11-11-11-11--------------
A-------------------------------------------------------------------------------
E-------------------------------------------------------------------------------
						      Pm----------|
E---------------------------------------------------0---0---0---------0----0----
B--10-10-10-10-9-9-------12-12-13-12-12-12----------7---10--7---x-x---10---13---
G-----------------9-9s12-12-12-12-12-12-12----------8---8---8---x-x---11---11---
D-------------------------------------------9-11-9--9---9---9---x-x---12---12---
A-------------------------------------------------------------------------------
E-------------------------------------------------------------------------------

E---0----------12-12-12-12-12-12-12-12-12-12-12-12-12-12-12-12-12---17b-------
B---0----x-x---14-14-14-13-14-14-13-13-14-14-14-14-14-14-14-14-14---20b--------
G---11---x-x--------------------------------------------------------------------
D---12---x-x--------------------------------------------------------------------
A-------------------------------------------------------------------------------
E-------------------------------------------------------------------------------

It goes to the chorus again and then the interlude.  First time around its palm muted then it isn’t muted then do the July, she lied part with the intro.

E-------------------------------------------------------------------------------
B-------------------------------------------------------------------------------
G-------------------------------------------------------------------------------
D---7---7---7---7---7---7---7---7---10---10---10---10----10---10---10---10------
A---7---7---7---7---7---7---7---7---10---10---10---10----10---10---10---10------
E---5---5---5---5---5---5---5---5---8----8----8----8-----8----8----8----8-------

E-------------------------------------------------------------------------------
B-------------------------------------------------------------------------------
G-------------------------------------------------------------------------------
D-14---14---14---14---14---14---14---13---13---13--13s8---8--8---8--8s10--10--10
A-14---14---14---14---14---14---14---13---13---13--13s8---8--8---8--8s10--10--10
E-12---12---12---12---12---12---12---11---11---11--11s6---6--6---6--6s8---8----8

The intro part is normal the first measure but then Art does this.
  	     July          she lied             July   		July 		July
E--------------------11---------------------------------------------------------
B---8---11---8-----8---8----8---11----13-13-13-13-13-14-14-14-14-14-14-14-14----
G---9---9----9-----9---9----9---9-----14-14-14-14-14-15-15-15-15-15-15-15-15----
D---10--10---10---10---10---10--10----15-15-15-15-15-16-16-16-16-16-16-16-16----
A-------------------------------------------------------------------------------
E-------------------------------------------------------------------------------

Back to the chorus and that wraps it up.


Comments