Everclear - El Distorto De Melodica Chords & Tabs

 

El Distorto De Melodica Chords & Tabs

Everclear Chords & Tabs

Version: 2 Type: Bass Tab 0 ratings
1 star 2 stars 3 stars 4 stars 5 stars
comments

El Distorto De Melodica Bass Tab

   
name=mike gomes
band=everclear
song="El Distorto De Melodica" 
inst_type=Select
body=This song is really cool, but very hard to follow. 

Riff 1: 
G----------------- 
D----------------- 
A----------------- 
E-1-1------------- 

Riff 2: 
G----------------- 
D----------------- 
A----------------- 
E-1-1h3-2p0------- 

Riff 3: 
G----------------- 
D----------------- 
A----------------- 
E-1-1-3-3-3-3-2-2- 

Riff 4: 
G--------------------- 
D--------------------- 
A--------------------- 
E-1-1-3-3-3-3h4h5----- 

Riff 5: 
G----------------- 
D----------------- 
A----------------- 
E--------1-------- 
[ Tab from: http://www.guitartabs.cc/tabs/e/everclear/el_distorto_de_melodica_btab_ver_2.html ]
Riff 6: 
G----------------- 
D----------------- 
A----------------- 
E-1-1-1-1-1-0----- 

Riff 7: 
G--------------------------------------------------------- 
D--------------------------------------------------------- 
A-0-0-0-0-0-0-0-1-1-1-1-1-1-1-2-2-2-2-2-2-2-3-3-3-3-3-3-3- 
E--------------------------------------------------------- 

Riff 8: 
G-----------------        For the order: Riff 1      " 6 
D-----------------                        " 2        " 1 
A-----------------                        " 3        " 7 
E-1-1-1-1-1-1-1-1-                        " 4        " 2 
(play these to the end)                   " 3        " 1 
                                          " 5        " 8 
  
Comments