Everclear - Amphetamine Chords & Tabs

 

Amphetamine Chords & Tabs

Everclear Chords & Tabs

Version: 1 Type: Bass Tab 0 ratings
1 star 2 stars 3 stars 4 stars 5 stars
comments

Amphetamine Bass Tab

Title: Amphetamine
Artist: Everclear (you guys rock)
Tab Submitted by: Derek Monzon

Here it goes:

1.	
G-----------------------------------------------------------------------------
D-----------------------------------------------------------------------------
A-----------------------3-3-3-3-3-3-3-3-------------------------3-3-3-3-3-3-3-3
E-3-3-3-3-3-3-3-3------------------------5-5-5-5-5-5-5-5----------------------
[ Tab from: http://www.guitartabs.cc/tabs/e/everclear/amphetamine_btab.html ]
2.	
G-----------------------------------------------------------------------------
D-----------------------------------------------------------------------------
A-----------------5-5-5-5-5--6-6-6-6-6--3-3-3-3-------------------------------
E-3-3-3-3-3--------------------------------------------4-4-4-4----------------

I would give you guys an order but I don't have the cd with me right now so 
you will have to figure it out yourself.
Trust me it's not that hard at all.

Comments