Everclear - Am Radio Chords & Tabs

 

Am Radio Chords & Tabs

Everclear Chords & Tabs

Version: 1 Type: Chords 1 rating
1 star 2 stars 3 stars 4 stars 5 stars
comments

Am Radio Chords

   
Tune it down a tone, it sounds better. Make it G D A D.


Verse/Chorus 
G|---------------------------| 
D|---------------------------| 
A|---------------------------| 
D|-1-111-1-111-4-444-4-66-44-| 

[ Tab from: http://www.guitartabs.cc/tabs/e/everclear/am_radio_crd.html ]
I'd be in bed with the radio on.... 
G|----------------------------| 
D|---------3-3-3-3------------| 
A|-3-3-3-3--------------------| 
D|-----------------4-4-4-4--6-| 


Teach me to play... 
G|---------------------------------|        ----- 
D|---------3-3-3-3-----------------|        ----- 
A|-3-3-3-3-------------------------|x2 Then ----- 
D|-----------------4-4-4-4-4-4-4-4-|        -(6)- 


Through the interlude its just an Eb that is played then the main riff comes back

Any problems with this? Tell me at peaceco@peaceco.net

Enjoy!
Comments