Everclear - A Beautiful Life Chords & Tabs

 

A Beautiful Life Chords & Tabs

Everclear Chords & Tabs

Version: 2 Type: Tab 0 ratings
1 star 2 stars 3 stars 4 stars 5 stars
comments

A Beautiful Life Tab

Evereclear
Slowmotion Day dream
Beautiful Life

Her is how the intro goes

E------------------------------------------------------
B------------------------------------------------------
G------------------------------------------------------
D---------8---5-88---8---5-88----8------88----8------8-
A-------8---8------8---8------10---8-10----10---8-10---
E------------------------------------------------------
repeat this riff until he comes with the chords

pre chorus
[ Tab from: http://www.guitartabs.cc/tabs/e/everclear/a_beautiful_life_tab_ver_2.html ]
E-------------------------------------------------------------
B-------------------------------------------------------------
G--------------8-----10---------------------------------------
D----8---10----8--8--10--8------------------------------------
A----8---10----6--8---8--8------------------------------------
E----6----8----6--6---8--6------------------------------------
let the first two chords be strumed and rest for four beats then strum the rest together

then this comes in with distortion at the next verse.

E--------------------------------------------------
B--------------------------------------------------
G----8---------------------------------------------
D----8--8------------------------------------------
A----6--8------------------------------------------
E----6--6------------------------------------------
p.m. this

then do the same at the top of the pre chorus only play the first two chords continuous.

this is the outro part played by the violin

E--------------------------------------------------------
B----4--3--1--3--1---------------------------------------
G------------------3-------------------------------------
D--------------------------------------------------------
A--------------------------------------------------------
E--------------------------------------------------------

that is it have with this great song
Comments