Eve 6 - You Really Got Me Chords & Tabs

 

You Really Got Me Chords & Tabs

Eve 6 Chords & Tabs

Version: 1 Type: Tab 0 ratings
1 star 2 stars 3 stars 4 stars 5 stars
comments

You Really Got Me Tab

   
-----------------------------------------------------------------
You Really Got Me - Eve 6
-----------------------------------------------------------------
Tabbed by: Teh Edster
Email: I3irthDefect@aol.com

Im 99.9% sure this tab is 100% right...It's a pretty easy song, but fun
to add stuff too.

| / slide up
| \ slide down
| h hammer-on
| p pull-off
| ~ vibrato
| + harmonic
| x Mute note

Tuning:Drop D Tuning!

e|----------------------------------------------------------------------|
B|----------------------------------------------------------------------|
G|----------------------------------------------------------------------|
D|--3-5-5-3-5-------5-7-7-5-7------10-12-12-10-12------10~--------------|
A|--3-5-5-3-5--x16--5-7-7-5-7--x4--10-12-12-10-12--x6--10~-Let Ring-----|
D|--3-5-5-3-5-------5-7-7-5-7------10-12-12-10-12------10~--------------|

[ Tab from: http://www.guitartabs.cc/tabs/e/eve_6/you_really_got_me_tab.html ]
e|----------------------------------------------------------------------|
B|----------------------------------------------------------------------|
G|----------------------------------------------------------------------|
D|--3-5-5-3-5------5-7-7-5-7------10-12-12-10-12------10-10-------------|
A|--3-5-5-3-5--x8--5-7-7-5-7--x4--10-12-12-10-12--x6--10-10--Strum Fast-|
D|--3-5-5-3-5------5-7-7-5-7------10-12-12-10-12------10-10-------------|
                                                      xxxxx      

e|----------------------------------------------------------------------|
B|----------------------------------------------------------------------|
G|----------------------------------------------------------------------|
D|--3-5-5-3-------3-5-5-3-5------5-7-7-5-7------10-12-12-10-12----------|
A|--3-5-5-3--x10--3-5-5-3-5--x8--5-7-7-5-7--x4--10-12-12-10-12-x9-------|
D|--3-5-5-3-------3-5-5-3-5------5-7-7-5-7------10-12-12-10-12----------|
                  xxxxxxxxx      xxxxxxxxx      xxxxxxxxxxxxxx   

e|----------------------------------------------------------------------|
B|----------------------------------------------------------------------|
G|----------------------------------------------------------------------|
D|--12x12x12x12--\----Pickslide-----------------------------------------|
A|--12x12x12x12---\-----------------------------------------------------|
D|--12x12x12x12----\----------------------------------------------------|
Comments