Eve 6 - Think Twice Chords & Tabs

 

Think Twice Chords & Tabs

Eve 6 Chords & Tabs

Version: 1 Type: Bass Tab 0 ratings
1 star 2 stars 3 stars 4 stars 5 stars
comments

Think Twice Bass Tab

   
Tuning: Standard (E A D G)

s = slide
~ = let note ring

Intro:
G|-------------------------------------------------------------------||
D|-------------------------------------------------------------------||
A|---------------------------------2-2-2-2-2-2-2-2-------------------||
E|-4-4-4-4-4-4-4-4-0-0-0-0-0-0-0-0-----------------2-2-2-2-2-2-2-2---||

Main Riff:
G|--------------------------------------------------||
D|--------------------------------------------------||
A|-----------------2-2-2-2--------------------------||
E|-4-4-4-4-0-0-0-0---------2-2-2-2------------------||
[ Tab from: http://www.guitartabs.cc/tabs/e/eve_6/think_twice_btab.html ]
Bridge:
G|----------------------------------------------------------------||
D|----------------------------------------------------------------||
A|----------------------------------------------------------------||
E|-0-0-0-0-0-0-0-0-0-0-0-0-0-0-0-0-2-2-2-2-2-2-2-2-2-2-2-2-2-2-2-2||

Bridge1:
G|----------------||
D|----------------||
A|-------2~-------||
E|-4~-0~---2~-----||

Pre Chorus:
G|--------------------------------------------------||
D|--------------------------------------------------||
A|-----------------2-2------------------------------||
E|-4-4-4-4-0-0-0-0-----------2-2-2------------------||


Order:
Intro(Comes in with vocals):2x
Main Riff:20x
Bridge
Bridge1:6x
Main Riff:3x
Pre Chorus
Main Riff:4x
Outro:E-2-2s0-
Comments