Eve 6 - Sunset Strip Bitch Chords & Tabs

 

Sunset Strip Bitch Chords & Tabs

Eve 6 Chords & Tabs

Version: 1 Type: Tab 0 ratings
1 star 2 stars 3 stars 4 stars 5 stars
comments

Sunset Strip Bitch Tab

Song: Sunset Strip Bitch
Band: EVE 6
From: Horrorscope
By:   Adam Urbanczyk & Pat Wysocki
Mail: pickboy87@cs.com
Tune: Dropped D

NOTE: The intro of this song is an adaptation of what seems to be a
      keyboard. It\'s a long stretch if you just play the notes. 
      I suggest using harmonics. See the harmonic version of the
      intro at the end. Thanx.

  Intro:
E|--------19-----------------17----------------------17-----|
B|---12------------9--10---------------9--10----------------|
G|*---------------------------------------------------------|
D|*---------------------------------------------------------|
A|----------------------------------------------------------|
D|----------------------------------------------------------|

  Main Riff/Bridge:
E|---------|------------------------------------------------|
B|---------|-----------------------------3--3--3--3--3--3---|
G|---------|*----------------------------------------------*|
D|---7-\\(0)|*--0--2-----0--2-----0--2----------------------*|
A|---7-\\(0)|---0--2-----0--2-----0--2-----------------------|
D|---7-\\(0)|---0--2-----0--2-----0--2-----------------------|

  Break: (After Main Riff)
E|------------------------|
B|------------------------|
G|------------------------|
D|---2--2-------2--2------|
A|---2--2-------2--2------|
D|---2--2-------2--2------|
[ Tab from: http://www.guitartabs.cc/tabs/e/eve_6/sunset_strip_bitch_tab.html ]
  Verses:
E|------------------------------------|
B|------------------------------------|
G|*----------------------------------*|
D|*--0--2-------2--2-------2--2-(2)--*|
A|---0--2-------2--2-------2--2-(2)---|
D|---0--2-------2--2-------2--2-(2)---|

  Chorus:
E|-------|----------------------------------------------------------------|
B|-------|----------------------------------------------------------------|
G|-------|*--------------------------------------------------------------*|
D|---7---|*--2---2-2---2---2---0---0-0---0---0---7--7--7--7--7--7--7--7--*|
A|---7---|---2---2-2---2---2---0---0-0---0---0---7--7--7--7--7--7--7--7---|
D|---7---|---2---2-2---2---2---0---0-0---0---0---7--7--7--7--7--7--7--7---|

			      Continued On Page Two...
____________________________________________________________________________



  Post-Chorus:
E|-------------(x4)|-------------(x4)|
B|-----------------|-----------------|
G|*---------------*|*---------------*|
D|*--10-10-10-10--*|*--12-12-12-12--*|
A|---10-10-10-10---|---12-12-12-12---|
D|---10-10-10-10---|---12-12-12-12---|

  Harmonic Version Of The Intro:
     NH       NH
E|-------------7------------------14------------------14---|
B|---12----------------9--10--------------9--10------------|
G|*-------------------------------------------------------*|
D|*-------------------------------------------------------*|
A|---------------------------------------------------------|
D|---------------------------------------------------------|

Comments