Eve 6 - Showerhead Chords & Tabs

 

Showerhead Chords & Tabs

Eve 6 Chords & Tabs

Version: 1 Type: Tab 0 ratings
1 star 2 stars 3 stars 4 stars 5 stars
comments

Showerhead Tab

   
Showerhead

Band: Eve 6
Album: Self-titled Debut
Tuning: Drop-D
Pedals: Distortion
Tabbed by: Dana Corrigan

Im going to give you all the riffs then Ill piece to it together for you at the end.

Intro (Acoustic):

e|---------------------------------------------|
B|---------------------------------------------|
G|--9-9-9-9-9--5-5-5-5-5--4-4-4-4-4--7-7-7-7-7-|
D|--9-9-9-9-9--5-5-5-5-5--5-5-5-5-5--7-7-7-7-7-|
A|--7-7-7-7-7--3-3-3-3-3--5-5-5-5-5--5-5-5-5-5-|
D|---------------------------------------------|

[Main Riffs]

Riff #1
e|-----------------------------------------2-2-3-2-|
B|-----------------------------------------3-3-3-3-|
G|--9-9-x-x-x-x--5-5-x-x-x-x--4-4-x-x-x-x--2-2-2-2-|
D|--9-9-x-x-x-x--5-5-x-x-x-x--5-5-x-x-x-x--0-0-0-0-| 
A|--7-7-x-x-x-x--3-3-x-x-x-x--5-5-x-x-x-x----------|
D|-------------------------------------------------|

Riff #2
e|-----------------------------------------0-|
B|-----------------------------------------0-|
G|--9-9-x-x-x-x--5-5-x-x-x-x--4-4-x-x-x-x--2-|
D|--9-9-x-x-x-x--5-5-x-x-x-x--5-5-x-x-x-x--2-|
A|--7-7-x-x-x-x--3-3-x-x-x-x--5-5-x-x-x-x--0-|
D|-------------------------------------------|
[ Tab from: http://www.guitartabs.cc/tabs/e/eve_6/showerhead_tab.html ]
Riff #3
e|---------------------------------------------0---|
B|-------------------------------------------3---3-|
G|--9-9-x-x-x-x--5-5-x-x-x-x--4-4-x-x-x-x--2-------|
D|--9-9-x-x-x-x--5-5-x-x-x-x--5-5-x-x-x-x----------| 
A|--7-7-x-x-x-x--3-3-x-x-x-x--5-5-x-x-x-x----------|
D|-------------------------------------------------|

Riff #4
e|-----------------------------------------0---5-----|
B|-----------------------------------------0-----5---|
G|--9-9-x-x-x-x--5-5-x-x-x-x--4-4-x-x-x-x--2-------5-|
D|--9-9-x-x-x-x--5-5-x-x-x-x--5-5-x-x-x-x--2---------| 
A|--7-7-x-x-x-x--3-3-x-x-x-x--5-5-x-x-x-x--0---------|
D|---------------------------------------------------|
Chorus:

e|-------------------------------------|
B|-------------------------------------|
G|--9-9-9-9--4-4-4-4--5-5-5-5--7-7-7-7-|
D|--9-9-9-9--4-4-4-4--5-5-5-5--7-7-7-7-| 
A|--7-7-7-7--2-2-2-2--3-3-3-3--5-5-5-5-|
D|-------------------------------------|

Interlude:

e|-------------------------------------|
B|-------------------------------------|
G|-----------5-5-5-5-----------7-7-7-7-|
D|--2-2-2-2--5-5-5-5--5-5-5-5--7-7-7-7-| 
A|--2-2-2-2--3-3-3-3--5-5-5-5--5-5-5-5-|
D|--2-2-2-2-----------5-5-5-5----------|

Bridge #1:
e|-----------------|
B|-----------------|
G|-----------------|
D|--7--------------| 
A|--7--7-6-7-7-6-7-|
D|--7--7-6-7-7-6-7-|

What it looks like:

Intro- 2x
Riff #1- 1x
Riff #2- 1x
Riff #1- 1x
Riff #3- 1x
Riff #1- 1x
Riff #2- 1x
Chorus- 2x
Riff #1- 1x
Riff #4- 1x
Riff #1- 1x
Riff #3- 1x
Riff #1- 1x
Riff #2- 1x
Chorus- 4x
Interlude- 2x
Bridge #1- 3x
Chorus- 4x
Interlude- 2x
Comments