Eve 6 - Rescue Chords & Tabs

 

Rescue Chords & Tabs

Eve 6 Chords & Tabs

Version: 1 Type: Tab 0 ratings
1 star 2 stars 3 stars 4 stars 5 stars
comments

Rescue Tab

Song: Rescue
Band: EVE 6
From: Horrorscope
By:   Adam Urbz
Mail: pickboy87@cs.com
Tune: Standard

  Intro/Chorus:(Gtr.1)
E|------------------------|
B|--------10---------10---|
G|----9----------9--------|
D|--7---7------7---7------|
A|------------------------|
E|------------------------|

  Intro/Chorus:(Gtr.2)
E|------------------------|
B|------------------------|
G|------------7--4--------|
D|--7----2----7--4----4---|
A|--7----2----5--2----4---|
E|--5----0------------2---|

  Verses:
E|--------------------------------|-Sometimes Jon-|
B|--------------------------------|---Will Play:--|
G|------------9----9----12----12--|----9----9-----|
D|--2-2-2-2---x----x-----x-----x--|----x----x-----|
A|--2-2-2-2---7----7----10----10--|----7----7-----|
E|--0-0-0-0-----------------------|---------------|
    P.M....
[ Tab from: http://www.guitartabs.cc/tabs/e/eve_6/rescue_tab.html ]
  Pre-Chorus:
E|-------------------------------------------------------|
B|-------------------------------------------------------|
G|--4-4-4-4/7-7-7-7/9-9-9-9\7-7-7-7/9-9-9-9/12-12-12-12--|
D|--x-x-x-x-x-x-x-x-x-x-x-x-x-x-x-x-x-x-x-x--x--x--x--x--|
A|--2-2-2-2/5-5-5-5/7-7-7-7\5-5-5-5/7-7-7-7/10-10-10-10--|
E|-------------------------------------------------------|

  Verse 2(Part Two):(With wah)  
E|----------------------------------------|
B|----------------------------------------|
G|--x-x-x-x--12----12----x-x--x-12----12--|
D|--x-x-x-x---x-----x----x-x--x--x-----x--|
A|--x-x-x-x--10----10----x-x--x-10----10--|
E|----------------------------------------|

  Guitar Solo:
E|------------------------------------------------------17\--|
B|--14-14-14-14--12-12-12-12--14-14-14-14--10-10-10-10-------|
G|-----------------------------------------------------------|
D|-----------------------------------------------------------|
A|-----------------------------------------------------------|
E|-----------------------------------------------------------|
Comments