Eve 6 - Promise Chords & Tabs

 

Promise Chords & Tabs

Eve 6 Chords & Tabs

Version: 7 Type: Tab 0 ratings
1 star 2 stars 3 stars 4 stars 5 stars
comments

Promise Tab

   
#-----------------------------PLEASE NOTE-------------------------------------#
#This OLGA file is the author's own work and represents their interpretation  #
#of the song. You may only use this file for private study, scholarship, or   #
#research. Remember to view this file in Courier, or some other monospaced    #
#font. See http://www.olga.net/faq/ for more information.                     #
#-----------------------------------------------------------------------------#

Date: Mon, 18 Sep 2000 21:14:36 -0400
From: "" 
Subject: e/eve_6/promise.tab

Title: "Promise"
Artist: EVE 6
Album: Horrorscope
Tabbed by: Alex Stroshane (Edge2693@hotmail.com)

Use a clean tone for the verses and bridge, switch to
distortion for the chorus. Try using a little bit of chorus
effect for the bridge. I use the mid pickup of my Strat.
Hope you can read the tab ok.

x = strum muted string
\ = slide up

Intro/Verse
-----------

Riff A

Palm mute
D-9-9-9-7-7-7-7-7-|-9-9-9-7-7-7-7-7-|
A-7-7-7-5-5-5-5-5-|-7-7-7-5-5-5-5-5-|
E-----------------|-----------------|  X4

Riff B

D-9-9-9-7-7-7-7-7-|-9-9-9-7-----9-7-|
A-7-7-7-5-5-5-5-5-|-7-7-7-5---9-----|
E-----------------|-----------------|

Go back to Riff A X3.

Riff C

G-----------------|---------11-11-11---11-11-11-11-|
D-6-6-6-6-7-7-7-9-|---9-9---11-11-11---11-11-11-11-|
A-4-4-4-4-5-5-5-7-|---7-7----9--9--9----9--9--9--9-|
E-----------------|--------------------------------|
    Red as a newborn...

Chorus
------

G-6-6-xxxx-7-7-xxxx-|-9-9-xxxx-9-9-xxxx-|
D-7-7-xxxx-7-7-xxxx-|-9-9-xxxx-9-9-xxxx-|
A-7-7-xxxx-5-5-xxxx-|-7-7-xxxx-7-7-xxxx-|
E-5-5-xxxx----------|-7-7-xxxx-7-7-xxxx-|  X2
      Promise not to try...

G-6-6-xxxx-7-7-xxxx-|-9-9-xxxx-x-x-x\6-|
D-7-7-xxxx-7-7-xxxx-|-9-9-xxxx-4-4-4\7-|
A-7-7-xxxx-5-5-xxxx-|-7-7-xxxx-4-4-4\7-|
E-5-5-xxxx----------|-7-7-xxxx-2-2-2\5-|
      Promise not to lie...
[ Tab from: http://www.guitartabs.cc/tabs/e/eve_6/promise_tab_ver_7.html ]
G-6---6-6-7-7-7-7-|-9-9-9-9---------|
D-7---7-7-7-7-7-7-|-9-9-9-9-----9-7-|
A-7---7-7-5-5-5-5-|-7-7-7-7---9-----|
E-5---5-5---------|-7-7-7-7---------|
             ...to let you down.

Verse 2
-------

Play Riff A X3, then Riff C.

Chorus 2
--------

Same as Chorus 1 except end like this:

                          hold note
G-6---6-6-7-7-7-7-|-9-9-9-9---------|
D-7---7-7-7-7-7-7-|-9-9-9-9---------|
A-7---7-7-5-5-5-5-|-7-7-7-7---------|
E-5---5-5---------|-7-7-7-7---------|
             ...to let you down, to let me down...

Bridge
------

This part is actually easier than it looks.

Riff D

e-----5-------5---|-----5-------5---|
B---5-------5---5-|---5-------5---5-|
G---------2-------|---------2-------|
D-4-----0---------|-2-----0---------|
A-----------------|-----------------|
E-----------------|-----------------|  X1

Then this variation:

e-----5-------5---|-----5-------5---|
B---5-------5---5-|---5-------5---5-|
G---------2-------|---------2-------|
D-4-----0---------|-2---------------|
A-----------------|-------0---------|
E-----------------|-----------------|  X1

Go back to Riff D X2.

Then this variation:

e-----5-------5---|-----5-------5---|
B---5-------5---5-|---5-------5---5-|
G---------2-------|-2-------2-------|
D-4-----0---------|-------2---------|
A-----------------|-----------------|
E-----------------|-----------------|

e-----5-------5---|-----------------|-------------------|
B---5-------5---5-|-----------------|-------------------|
G---------2-------|-----------------|-------------------|
D-4-----0---------|-----------------|-------------------|
A-----------------|-777777777777777-|-77777777777777777-|
E-----------------|-----------------|-------------------|

Chorus/Outro
------------

As before except no muted strumming, e.g:

G-6-6------7-7------|-9-9------9-9------|
D-7-7------7-7------|-9-9------9-9------|
A-7-7------5-5------|-7-7------7-7------|
E-5-5---------------|-7-7------7-7------| And so on.

The ending is like this:

G-6-6------7-7------|-9-9--9--9-9--9--9-9-9-9-|
D-7-7------7-7------|-9-9--9--9-9--9--9-9-9-9-|
A-7-7------5-5------|-7-7--7--7-7--7--7-7-7-7-|
E-5-5---------------|-7-7--7--7-7--7--7-7-7-7-|

Hope you enjoy the tab! Comments/questions: Edge2693@hotmail.com
Comments