Eve 6 - Promise Chords & Tabs

 

Promise Chords & Tabs

Eve 6 Chords & Tabs

Version: 4 Type: Tab 0 ratings
1 star 2 stars 3 stars 4 stars 5 stars
comments

Promise Tab

   
#----------------------------------PLEASE 
NOTE---------------------------------#
#This file is the author's own work and represents their interpretation of 
the #
#song. You may only use this file for private study, scholarship, or 
research. #
#------------------------------------------------------------------------------#

Band: Eve 6
CD: Horrorscope
Song: Promise
By: Airwalk182 airwalk182@hotmail.com

The only other song I've ever tabbed was Happy Birthday, so give me a break
on this one.

Intro
(Repeat as many times as needed, I think it's twice)
e-----------------------------------------------------------------|
B-----------------------------------------------------------------|
G-----------------------------------------------------------------|
D-7-7-7-----------7-7-7-----------7-7-7-----------7-7-7-----------|
A-5-5-5-7-7-7-7-7-5-5-5-7-7-7-7-7-5-5-5-7-7-7-7-7-5-5-5-7-7-7-7-7-|
E-------5-5-5-5-5-------5-5-5-5-5-------5-5-5-5-5-------5-5-5-5-5-|


e--------------------------------|
B--------------------------------|
G----------------------------7---|
D-7-7-7-----------7-7-7--------7-|
A-5-5-5-7-7-7-7-7-5-5-5-7--5-----|
E-------5-5-5-5-5-------5--------|


Verse
(Repeat)
e-----------------------------------------------------------------|
B-----------------------------------------------------------------|
G-7-7-7-----------7-7-7-----------7-7-7-----------7-7-7-----------|
D-7-7-7-7-7-7-7-7-7-7-7-7-7-7-7-7-7-7-7-7-7-7-7-7-7-7-7-7-7-7-7-7-|
A-5-5-5-7-7-7-7-7-5-5-5-7-7-7-7-7-5-5-5-7-7-7-7-7-5-5-5-7-7-7-7-7-|
E-------5-5-5-5-5-------5-5-5-5-5-------5-5-5-5-5-------5-5-5-5-5-|

[ Tab from: http://www.guitartabs.cc/tabs/e/eve_6/promise_tab_ver_4.html ]
Chorus
e------------------------------------------------------------------------|
B------------------------------------------------------------------------|
G-7-7-xxxx-7-7-xxxx-------------------7-7-xxxx-7-7-xxxx------------------|
D-7-7-xxxx-7-7-xxxx-7-7-xxxx-7-7-xxxx-7-7-xxxx-7-7-xxxx-7-7-xxxx-7-7-xxxx|
A-5-5-xxxx-5-5-xxxx-7-7-xxxx-7-7-xxxx-5-5-xxxx-5-5-xxxx-7-7-xxxx-7-7-xxxx|
E-------------------5-5-xxxx-5-5-xxxx-------------------5-5-xxxx-5-5-xxxx|
I promise...

e------------------------------------------------|-------|
B------------------------------------------------|-------|
G-7-7-xxxx-7-7-xxxx-------------------7777-------|---7---|
D-7-7-xxxx-7-7-xxxx-7-7-xxxx-7-7-7777-7777-7-----|-----7-|
A-5-5-xxxx-5-5-xxxx-7-7-xxxx-7-7-7777-5555-7-----|-5-----|
E-------------------5-5-xxxx-5-5-5555------5-----|-------|
I promise... Let Ring^ ^Only for first chorus

(Verse)

(Chorus)

Third Verse
(Repeat as many times as needed)
e-----------------------------------------------------------------|
B-----------------------------------------------------------------|
G-----7-------7-------7-------7-------7-------7-------7-------7---|
D---7---7---7---7---7---7---7---7---7---7---7---7---7---7---7---7-|
A-5-------5-------5-------5-------5-------5-------5-------5------5|
E-----------------------------------------------------------------|

(Chorus)

I guess that's about it! Listen to the song really good before playing,
it helps. Like I said, the only other thing I'v ever tabbed out is
Happy Birthday, so I'm not the greatest but it sounds kinda good.
But you can learn Happy Birthday at:

http://airwalk182.homestead.com/files/happybday.htm

That's if you really want to...
 
 
Comments