Eve 6 - Promise Chords & Tabs

 

Promise Chords & Tabs

Eve 6 Chords & Tabs

Version: 1 Type: Tab 1 rating
1 star 2 stars 3 stars 4 stars 5 stars
comments

Promise Tab

Song: Promise
Band: EVE 6
From: Horrorscope
By:   Adam Urbanczyk
Mail: pickboy87@cs.com
Tune: Standard

  Intro/Verses Gtr 1: (Clean)             
E|---------------------------------------|End-Verses|
B|---------------------------------------|----------|
G|*-------------------------------------*|-----7----|
D|*----------7-7-7-7--9-9-9-9--7-7-7-7--*|-------7--|
A|--7-7-7-7--5-5-5-5--7-7-7-7--5-5-5-5---|----------|
E|--5-5-5-5------------------------------|--5-------|
  PM.....................................                               
[ Tab from: http://www.guitartabs.cc/tabs/e/eve_6/promise_tab.html ]
  Guitar Part Behind the Intro/Verses:  
E|---------------------------------------|End-Verses|
B|---------------------------------------|----------|
G|*-------------------------------------*|----------|
D|*-9-7-9-7--9-7-9-7--9-7-9-7--9-7-9-7--*|----------|
A|---------------------------------------|----------|
E|---------------------------------------|----------|
  PM.....................................

  Chorus:
E|---------------------------------------|
B|---------------------------------------|
G|*-------------------------------------*|
D|*----------7-7-xxxx-9-9-xxxx-7-7-xxxx-*|
A|--7-7-xxxx-5-5-xxxx-7-7-xxxx-5-5-xxxx--|
E|--5-5-xxxx-----------------------------|

  Interlude:
E|---------------------------------------|
B|---------10-------------10-------------|
G|*-----9------9-------9------9---------*|
D|*--7--------------7-------------------*|
A|---------------------------------------|
E|---------------------------------------|

Well, that\'s the entire song. E-mail me with any problems, corrections,
or anything else. If you have any requests, I\'ll se what I can do.
Just e-mail pickboy87@cs.com

Comments