Eve 6 - Open Road Song Chords & Tabs

 

Open Road Song Chords & Tabs

Eve 6 Chords & Tabs

Version: 2 Type: Tab 0 ratings
1 star 2 stars 3 stars 4 stars 5 stars
comments

Open Road Song Tab

   
T1: Geoff Morrissey, pmorrissey03@snet.net, Eve 6, Open Road Song, 1998

S1: 
Intro/Verse:
e-----------------------------------------|
B-----------------------------------------|
G----------9-9--9-9-11-11--11-11-7-7--7-7-|
D-7-7--7-7-9-9--9-9-11-11--11-11-7-7--7-7-|
A-7-7--7-7-7-7--7-7-9--9---9--9--5-5--5-5-|
E-5-5--5-5--------------------------------|

e-------------------------------------|
B-------------------------------------|
G-------------------7-7--7-7-7-7--7-7-|
D-7-7--7-7-9-9--9-9-7-7--7-7-7-7--7-7-|
A-7-7--7-7-9-9--9-9-5-5--5-5-5-5--5-5-|
E-5-5--5-5-7-7--7-7-------------------|Play 4x

Chorus:
e-----------------------------------|
B-----------------------------------|
G-1-------7-------1-------7---------|
D-2-------7-------2-------7---------|
A-2-------5-------2-------5---------|
E-0---------------0-----------------|

2nd Verse:
Palm Mute first verse chords. Play 2 times 

2nd Chorus:
e-0-0-0-0-0-0-0-0------------------|
B-0-0-0-0-0-0-0-0-5-5-5-5-5-5-5-5--|
G-1-1-1-1-1-1-1-1-7-7-7-7-7-7-7-6-.|
D-2-2-2-2-2-2-2-2-7-7-7-7-7-7-7-6-.|
A-2-2-2-2-2-2-2-2-5-5-5-5-5-5-5-4--|
E-0-0-0-0-0-0-0-0------------------|

Solo: (Slide Guitar)
e-----------------/12-----------------------------------|
B-----17---\19\\//----\15-15-15---\15-15----------------|
G-\17----17--------------------/14-----------\16-----\16|
D----------------------------------------\15-----\15----|
A-------------------------------------------------------|
E-------------------------------------------------------|
[ Tab from: http://www.guitartabs.cc/tabs/e/eve_6/open_road_song_tab_ver_2.html ]
e-/5---5---\7-\9\10-10/9-9\10--17b19r17~~~--------------------|
B----5---5----------------------------------------------------|
G-------------------------------------------14b15b14----------|
D-------------------------------------------14b15b14-let-ring-|
A-------------------------------------------------------------|
E-------------------------------------------------------------|


Rhythm over solo:
e----------------------------------|
B----------------------------------|
G-----------------7-7-7-7-7-7-7-7-.|
D-7-7-7-7-9-9-9-9-7-7-7-7-7-7-7-7-.|
A-7-7-7-7-9-9-9-9-5-5-5-5-5-5-5-5--|
E-5-5-5-5-7-7-7-7------------------|


e-------------------------------------|-------------------------------|
B-------------------------------------|-------------------------------|
G---------9-9-9-9-11-11-11-11-7-7-7-7-|-----------------7-7-7-7-7-7-7-|
D-7-7-7-7-9-9-9-9-11-11-11-11-7-7-7-7-|-7-7-7-7-9-9-9-9-7-7-7-7-7-7-7-|
A-7-7-7-7-7-7-7-7-9--9--9--9--5-5-5-5-|-7-7-7-7-9-9-9-9-5-5-5-5-5-5-5-|
E-5-5-5-5-----------------------------|-5-5-5-5-7-7-7-7---------------|

3rd Verse:
e------------|-------5----|------------|---------------------------|
B------------|---------5--|------------|-gain feedback-------------|
G------------|------------|------------|---------------------------|
D-7----------|------------|------------|---------------------------|
A-7-let ring-|------------|------------|----------------pickscrape-|
E-5----------|------------|------------|----------------x\\\\\\\\--|

Play Intro/Verse 2 times
Then strum A many times and play chorus 4 times. End on A.




Comments