Eve 6 - Nocturnal Chords & Tabs

 

Nocturnal Chords & Tabs

Eve 6 Chords & Tabs

Version: 1 Type: Tab 0 ratings
1 star 2 stars 3 stars 4 stars 5 stars
comments

Nocturnal Tab

   
Song: Nocturnal
Band: EVE 6
From: Horrorscope
By:   Adam Urbz
Mail: pickboy87@cs.com
Tune: Dropped D

  Intro:
E|--5-4-5--0-0-0-0-0-0--|
B|--5-5-5--5-5-5-5-5-5--|
G|*--------------------*|
D|*--------------------*|
A|----------------------|
D|----------------------|

  Main Riff:
E|--7-6-7--2-2-2-2-2-2--|
B|--7-7-7--0-0-0-0-0-0--|
G|*--------------------*|
D|*--------------------*|
A|----------------------|
D|----------------------|

  Verse One:
E|-----------------------------------------------|
B|-----------------------------------------------|
G|*---------------------------------------------*|
D|*-9-xxxxxxxx-4-xxxxxxxx-6-xxxxxxxx-2-xxxxxxxx-*|
A|--9-xxxxxxxx-4-xxxxxxxx-6-xxxxxxxx-2-xxxxxxxx--|
D|--9-xxxxxxxx-4-xxxxxxxx-6-xxxxxxxx-2-xxxxxxxx--|
[ Tab from: http://www.guitartabs.cc/tabs/e/eve_6/nocturnal_tab.html ]
  Chorus:
E|--------------------------------|
B|--------------------------------|
G|*------------------------------*|
D|*-9----4--4----6----2--2---(0)-*|
A|--9----4--4----6----2--2---(0)--|
D|--9----4--4----6----2--2---(0)--|

  Verse Two:(Bass plays Verse One notes)
E|--------------------------------|
B|--------------------------------|
G|*-0--2--4--2----0--2--4--2-----*|
D|-------------------------------*|
A|--------------------------------|
D|--------------------------------|

  Break:(Use wah as filter)
E|------------------------------------------------------------|
B|------------------------------------------------------------|
G|*-4--4--4--4-4-4---------------1--1--1--1-1-1--------------*|
D|*----------------4--4-4---4-4-----------------2--2-2---2-2-*|
A|------------------------------------------------------------|
D|------------------------------------------------------------|
Comments