Eve 6 - Leech Chords & Tabs

 

Leech Chords & Tabs

Eve 6 Chords & Tabs

Version: 2 Type: Bass Tab 0 ratings
1 star 2 stars 3 stars 4 stars 5 stars
comments

Leech Bass Tab

Band: Eve 6
Song: Leech
Album: Eve 6

Drop D tuning

Intro:
G:-----------------------------------------
D:-----------------------------------------
A:-----------------------------------------
D:-0-0-0-0--7-7-7-7--10-10-10-10--5-5-5-5--

Verse:
G:----------------------------------------------------------------
D:----------------------------------------------------------------
A:-5--5-5-5-5-5--0--0-0-0-0-0--3--3-3-3-3-3--1-1-1-1--3--3-3-3--5-
D:----------------------------------------------------------------
play this note at the end of the verse
G:--------------------
D:--------------------
A:--------------------
D:-3-3-3-3-3-3-3-3-3--
[ Tab from: http://www.guitartabs.cc/tabs/e/eve_6/leech_btab_ver_2.html ]
Chorus:(Suckin' on my brain...)
G:-----------------------------------------
D:-----------------------------------------
A:-----------------------------------------
D:-0-0-0-0--7-7-7-7--10-10-10-10--5-5-5-5--

Bridge:(ooooooooh...)
G:----------------------------------------------------
D:----------------------------------------------------
A:----------------------------------------------------
D:-2-2-2-2-2-2-2-2-2-2-2-2--4-4-4-4-4--5-5-5-5-5-5-5--

"Broken record..."
same as verse

"It's graduation time...)
G:---------------------------------------------------
D:---------------------------------------------------
A:---------------------------------------------------
D:-3-3-3-3-3-3-3-3/8-8-8-8-8-8-8-8--7-7-7-7-7-7-7-7--

Outro:
G:-------------------------------------------------
D:-------------------------------------------------
A:-------------------------------------------------
D:-0-0-0-0--7-7-7-7--10-10-10-10--5-5-5-5-5----2~--

TAB: Matt Nielsen zorg500@hotmail.com
Comments