Eve 6 - Inside Out Chords & Tabs

 

Inside Out Chords & Tabs

Eve 6 Chords & Tabs

Version: 1 Type: Tab 0 ratings
1 star 2 stars 3 stars 4 stars 5 stars
comments

Inside Out Tab

   
Eve 6
Inside out


intro clean

        A   E    B   A   E    F#   E   B*  F#  E   B*  F#      
-xx--0---0---2---0---0----2----0---0---2---0---0---2-------------------------
-xx--2---0---4---2---0----2----0---0---2---0---0---2-------------------------
-xx--2---1---4---2---1----3----1---4---3---1---4---3-------------------------
-xx--2---2---4---2---2----4----2---4---4---2---4---4-------------------------
-xx--0---2---2---0---2----4----2---2---4---2---2---4-----------------------
-xx----- -0---2--------0---2----0--------2---0-------2--------------------


vERSE distorted
-----------------------------------------0 00xxxx
-----------------------------------------0 00xxxx
-----------------------------------------1 11xxxx
------99--44--77--55xx--99--44---2 22xxxx
------99--44--77--55xx--99--44---2 22xxxx
19/--77--22--55--33xx--77--22---0 00xxxx

 ----------------------------------0 00xxxx
-----------------------------------0 00xxxx
-----------------------------------1 11xxxx
99--44--77--55xx--99--44---2 22xxxx
99--44--77--55xx--99--44---2 22xxxx
77--22--55--33xx--77--22---0 00xxxx

------------------------------------3--------3-----------
------------------------------------3--3------3-----------
------------------------------------0----0------0--------
99--44--77--55xx--99--44----0-------------------
99--44--77--55xx--99--44----2-------------------
77--22--55--33xx--77--22----3-------------------

--00xx---00xx--22x222222----00xx--00-02-----------------------
--00xx---00xx--44x444444----00xx--00-02-----------------------
--22xx---11xx--44x444444----22xx--11-13-----------------------
--22xx---22xx--44x444444----22xx--22-24-----------------------
--22xx---22xx--22x222222----22xx--22-24-----------------------
-----------00xx--22x222222------------00-02--------19/---------------

00xx----22xx---22x222222--0000 2222 2222------------------
00xx----44xx---22x222222--0000 4444 2222------------------
11xx----44xx---33x333333--1111 4444 3333------------------
22xx----44xx---44x444444--2222 4444 4444------------------
22xx----22xx---44x444444--2222 2222 4444------------------
00xx----22xx---22x222222--0000 2222 2222------------------

                      ----------------------------------0 0000----
                     -----------------------------------0 0000----
                     -----------------------------------1 1111----
99xxxx--44xxxx--77xxxx--55xx--99--44---2 2222----7799--
99xxxx--44xxxx--77xxxx--55xx--99--44---2 2222----7799--
77xxxx--22xxxx--55xxxx--33xx--77--22---0 0000----5577--

                             
------------------------------------3--------3-----------
                             
------------------------------------3--3------3-----------
                             
------------------------------------0----0------0--------
99xxxx--44xxxx--77xxxx--55xx--999999444----0-------------------
99xxxx--44xxxx--77xxxx--55xx--999999444----2-------------------
77xxxx--22xxxx--55xxxx--33xx--777777222----3-------------------

--00xx---00xx--22x222222----00xx--00-02-----------------------
--00xx---00xx--44x444444----00xx--00-02-----------------------
--22xx---11xx--44x444444----22xx--11-13-----------------------
--22xx---22xx--44x444444----22xx--22-24-----------------------
--22xx---22xx--22x222222----22xx--22-24-----------------------
-----------00xx--22x222222------------00-02--------19/---------------
[ Tab from: http://www.guitartabs.cc/tabs/e/eve_6/inside_out_tab.html ]
00xx----22xx---22x222222--0000 2222 2222------------------
00xx----44xx---22x222222--0000 4444 2222------------------
11xx----44xx---33x333333--1111 4444 3333------------------
22xx----44xx---44x444444--2222 4444 4444------------------
22xx----22xx---44x444444--2222 2222 4444------------------
00xx----22xx---22x222222--0000 2222 2222------------------

Paln mute=l------l
    l-----l l---l  l-----l l---l l------l  l---l
------------------------------------5-- 5------
---------4----4------5---5-------5---5------5--5-----
---------4----4------4---4-------2---2------4--4---
---44444444222222222222222222222  2--------
---------------------------------------------
---------------------------------------------

    l-----l l---l  l-----l l---l l------l  l---l
------------------------------------5-- 5------
---------4----4------5---5-------5---5------5--5-----
---------4----4------4---4-------2---2------4--4---
---44444444222222222222222222222  2--------
---------------------------------------------
---------------------------------------------

    l-----l l---l  l-----l l---l l------l  l---l
------------------------------------5-- 5------
---------4----4------5---5-------5---5------5--5-----
---------4----4------4---4-------2---2------4--4---
---44444444222222222222222222222  2--------
---------------------------------------------
---------------------------------------------

    l-----l l---l  l-----l l---l 
--------------------------- 55-------------------
---------4----4------55--55----55------------
---------4----4------44--22----44----------
---44444444222222--22----22----------
---------------------------------------------
---------------------------------------------

-----------------------------------------------
------------------------------------------------
-------4-------4------4--------4-------------
-----4--4----4--4---4--4----4-4------------     X4
---2----------------0-------------------------
------------0----------------0----------------

--22222---00000-xxxx---00000--00000-xxxx-------
--22222---00000-xxxx---22222--00000-xxxx--------
--44444---11111-xxxx---22222--11111-xxxx--------
--44444---22222-xxxx---22222--22222-xxxx--------
--44444---22222-xxxx---00000--22222-xxxx--------
--22222---00000-xxxx-------------00000-xxxx--------

--22222---00000-xxxx---00000--00000-xxxx-------
--22222---00000-xxxx---22222--00000-xxxx--------
--44444---11111-xxxx---22222--11111-xxxx--------
--44444---22222-xxxx---22222--22222-xxxx--------
--44444---22222-xxxx---00000--22222-xxxx--------
--22222---00000-xxxx-------------00000-xxxx--------

--22222---00000-xxxx---00000--00000-xxxx-------
--22222---00000-xxxx---22222--00000-xxxx--------
--44444---11111-xxxx---22222--11111-xxxx--------
--44444---22222-xxxx---22222--22222-xxxx--------
--44444---22222-xxxx---00000--22222-xxxx--------
--22222---00000-xxxx-------------00000-xxxx--------

--22222---00000-xxxx---00000---22-------
--22222---00000-xxxx---22222---22-------
--44444---11111-xxxx---22222---33-------
--44444---22222-xxxx---22222---44-------
--44444---22222-xxxx---00000---44-------
--22222---00000-xxxx--------------22-------

--0---2---0--22------------------------------------------
--0---4---0--22-----------------------------------------
--1---4---1--33-------------------------------------------
--2---4---2--44-------------------------------------------
--2---2---2--44------------------------------------------
--0---2---0--22------------------------------------------
The strums are not all correct. When copying to another site, credit Mike.
Comments