Eve 6 - Inside Out Chords & Tabs

 

Inside Out Chords & Tabs

Eve 6 Chords & Tabs

Version: 2 Type: Bass Tab 0 ratings
1 star 2 stars 3 stars 4 stars 5 stars
comments

Inside Out Bass Tab

Song: Inside Out
Artist: Eve 6
Tabbed/Corrected by Dan Loeser (Original by Josh Mott)

"No offense to the person who tabbed this before, but it was incorrect.
Here's the correct version." <-- yours was wrong too buddy. Here's the right one. 
         Play this twice: verse part one
G----------------------------------------------------------------------
D--------------------------------------------------------------------
A----2-2----------0-0-----------2-2-------------------------------
E----------2-2--------3-3-----------2-2----------0-0---0-0-0-0---

         Play this once: verse part two
G---------------------------------------------------------------
D---------------------------------------------------------------
A---2-2---------0-0-----------2-2-------------------------------
E---------2-2---------3-3-----------2-2----3-3---3-3-3-3----
[ Tab from: http://www.guitartabs.cc/tabs/e/eve_6/inside_out_btab_ver_2.html ]
Then the bridge once
G---------------------------------------------------
D--------------------------------------------------
A--0---------2----2----0------------------------------
E------0-------------------------0-----2\-------------

Then the chorus twice
G----------------------------------
D-------------------------------------
A----------2-------------------------
E---0------------2-----2----------------

Then play verse part one once.
Then play verse part two once.
Then play bridge once.
Then play chorus twice.

Then play part four
G--------------------------
D-----------------------------------
A----2-------------0-----------------
E----------0---------------0----------

On  the last time for part four, add a 3 behind the last 1 on the E
string, then play this ending
G------------------------
D-------------------------
A------------2-------------
E-----0-------------2-------
 
This is an easy song. If you cant play it right in 4 minutes, you're a retard. 
Email me at scombust@earthlink.net with comments. Thanks to Josh Mott for original TAB. 
Comments