Eve 6 - Inside Out Chords & Tabs

 

Inside Out Chords & Tabs

Eve 6 Chords & Tabs

Version: 1 Type: Bass Tab 0 ratings
1 star 2 stars 3 stars 4 stars 5 stars
comments

Inside Out Bass Tab

Inside Out, Eve 6
Tab By: Micah The Bass Player
Comments: Smalenfa@maine.rr.com

I saw these guys in concert they were pretty darn good.  I liked when they played this song.
It was their first big hit.  The Kid who tabbed this one last time only had 1/4 of the chorus.
This tab should be 100% correct.  If this is wrong you can call me a funny name.  The Very 
Very Last Fill is a thing on some recordings of this song if you don't get it don't bother 
playing it.

Key-
s=slide
x=stop as fast as possible
q=quickly change to next note


(Fill x1)

G---------------|
D---------------|
A---------------|
E---1s16-16s1---|

(Verse x2)

G----------------------------------------|
D----------------------------------------|
A---22--------00--------22---------------|
E--------22--------33--------22---0-000--|

(Verse Part Two x1)

G-----------------------------------------|
D-----------------------------------------|
A---22--------00--------22----------------|
E--------22--------33--------22---3-333---|

(Chorus x1)
[ Tab from: http://www.guitartabs.cc/tabs/e/eve_6/inside_out_btab.html ]
G------------------------------------------------------------------------------|
D------------------------------------------------------------------------------|
A---00--------22-2222---00-------------------------22----------------22--------|
E--------00------------------00---2x---16s1---00--------22-222--00--------00---|

(Fill x1)

(Verse x1)

(Verse Part Two x1)

(Chorus x1)

(Bridge x6)                                  (6th time)

G-------------------------------------------|-------------|
D-------------------------------------------|-------------|
A---22222222----------00000000--------------|---00--------|
E------------00000000----------00000000-----|--------00---|

(Bridge Two x4)

G----------------------|
D----------------------|
A---22--------00-------|
E--------00-------00---|

("Outro" x4)                       (4th time)

G----------------------------------------|-----------------------------------------|
D----------------------------------------|-----------------------------------------|
A---2222---------------0000--------------|---2222----------------0000--------------|
E----------0000-16s1----------0000-16q0--|-----------0000-16s1----------0000-16q0--|

(Very Last Part)

G-------------------|
D-------------------|
A---------22--------|
E---0-0------0q22---|

(Very Very Last Fill if you listen to whole song x1)

G----------|
D----------|
A----------|
E---1s16---|

Special Thanks to the previous incorrect tabbers-
Josh Mott,
Dan Loesor.
Comments