Eve 6 - How Much Longer Chords & Tabs

 

How Much Longer Chords & Tabs

Eve 6 Chords & Tabs

Version: 2 Type: Bass Tab 0 ratings
1 star 2 stars 3 stars 4 stars 5 stars
comments

How Much Longer Bass Tab

Band: Eve 6
Song: How Much Longer
Album: Eve 6

Intro:
G:------------------------
D:------------------------
A:------------------------
E:-2-2-2-2-2-2-2-2-2-2-2--
[ Tab from: http://www.guitartabs.cc/tabs/e/eve_6/how_much_longer_btab_ver_2.html ]
Verse:
G:--------------------------------------------------------------------
D:--------------------------------------------------------------------
A:--------------------------------------------------------------------
E:-2-2-2-2-2-2-2-2-2-2-2-2-2-2-2-2--0-0-0-0-0-0-0-0--2-2--2-2-2-2-2-2-

Chorus:
G:------------------------------------
D:------------------------------------
A:-4--4-4-4-4--2--2-2-2-2-------------
E:------------------------2--2-2-2-2--

Super simple song...
TAB: Matt Nielsen zorg500@hotmail.com
Comments