Eve 6 - Heres To The Night Chords & Tabs

 

Heres To The Night Chords & Tabs

Eve 6 Chords & Tabs

Version: 3 Type: Tab 0 ratings
1 star 2 stars 3 stars 4 stars 5 stars
comments

Heres To The Night Tab

Song: Heres To The Night
Artist: Eve 6
Tabbed by: Kevin Mak
Email: decade146@comcast.net
Tuning: Standard

I was sick of the other tabs. Listen to the cd for the timings.
This is my first complete tab, so give this a try and tell me what you think!

Intro:
e|--3---3------|
B|--------3----|
G|----0--------|
D|-------------|
A|-------------|
E|-------------| x2

Verse (palm mute):
e|------------------|----------------|----------------|-----------------|
B|------------------|----------------|----------------|-----------------|
G|------------------|----------------|----------------|-----------------|
D|-5--5---5---5---5-|--5---5---5---5-|--5---5---5---5-|----7--------7---|
A|------5-------5---|----5-------5---|----5-------5---|--5---5--5-5---5-|
E|------------------|----------------|----------------|-----------------|

e|----------------|----------------|----------------|----------------|
B|----------------|----------------|----------------|----------------|
G|----------------|----------------|----------------|----------------|
D|--5---5---5---5-|--5---5---5---5-|--5---5---5---5-|----7-------7---|
A|----5-------5---|----5-------5---|----7-------7---|--5---5---5---5-|
E|----------------|----------------|----------------|----------------|
[ Tab from: http://www.guitartabs.cc/tabs/e/eve_6/heres_to_the_night_tab_ver_3.html ]
e|----------------|----------------|----------------|---------------------------------|
B|----------------|----------------|----------------|---------------------------------|
G|----------------|----------------|----------------|---------------------------------|
D|--5---5---5---5-|--5---5---5---5-|--5---5---5---5-|----7-------7--------7-------7---|
A|----5-------5---|----5-------5---|----5-------5---|--5---5---5---5--5-5---5---5---5-|
E|----------------|----------------|----------------|---------------------------------|

e|----------------|----------------|----------------|----------------|
B|----------------|----------------|----------------|----------------|
G|----------------|----------------|----------------|----------------|
D|--5---5---5---5-|--5---5---5---5-|--5---5---5---5-|----7-------7---|
A|----5-------5---|----5-------5---|----7-------7---|--5---5---5---5-|
E|----------------|----------------|----------------|----------------|


Pre-Chorus:

e|-------------------|------------------|-------------------------------|
B|-------------------|------------------|-----1-------1-------1-------1-|
G|------0-2------0-2-|------0-------0---|---0---0---0---0---0---0---0---|
D|----0--------0-----|----0---0---0---0-|-------------------------------|
A|-----------9-------|-10-------9-------|-3-------3-------3-------3-----|
E|--3----------------|------------------|-------------------------------|

Chorus:
e|--x--x--x--x-|
B|--x--x--7--x-|
G|--5--4--7--9-|
D|--5--5--7--9-|
A|--3--5--5--7-|
E|--3--3--5--7-|

Bridge:

Chords
e|--x--1-|
B|--x--1-|
G|--8--2-|
D|--8--3-|
A|--6--3-|
E|--6--1-|

Melody
e|-----------------|-----------------|
B|-------3---------|-------3---------|
G|-----3-----------|-----5---5-------|
D|---5-------5---5-|---3-------3---3-|
A|-6-----------6---|-3-----------3---|
E|-----------------|-----------------|
 
From: Kevin Mak 
Comments